At The Drive In - Ticklish tab

Track: Ticklish
Artist: At The Drive-In
Album: Acrobatic Tenement
Tabbed by: Dave The Bookie (dave_the_bookie@hotmail.com)

Standard Tuning (high to low): E B G D A E

This tab looks complicated but it does sound 99% correct.

Intro Riff/Verse

Gtr.1

|-----------------------|----------------||--12---12---12---10----|---12---10------||---x----0----0----0----|----0----0------||--10----x----x----x----|----x----x------||--12---10---12---10----|---12---10------||-----------------------|----------------|
Gtr.2
|-----------12-------------------|---0---0----||--12-10-12----12-10-12br—12br---|---5---3----||--------------------------------|---0---0----||--------------------------------|---7---5----||--------------------------------|------------||--------------------------------|------------|
Verse Gtr.1 – Same as verse for first part Second part:
|---------------------------------------------------||--10-10-10-10-10-10-10-10--------------------------||---x--x--x--x--x--x--x--x--0--0--0--0--0--0--0--0--||---x--x--x--x--9--9--9--9--x--x--x--x--x--x--x--x--||--10-10-10-10-10-10-10-10-10-10-10-10-10-10-10-10--||---------------------------------------------------|
Gtr.2
|---------------------------------------------|--5--5---5//151515151515--5--5---5---3--3----|--0--0---0--141414141414--0--0---0---0--0----|--7--7---7//--------------7--7---7---5--5----|---------------------------------------------|---------------------------------------------
--12-10----------------------10------------------------12-10-12-10----12-13---13p12-13p12\8-----------------------12----------------------------------------------------------------------------------------------------------------------------------------------------------------------
-------------------------|-----8-10-8--------------|---9--------9-7-9-7------|--------------------9----|-------------------------|-------------------------|
Post-Verse Gtr.1
|----------------------------------------------------||--10-----------10-----------10-----------10---------||---x---------0--x---------0--x---------0--x---------||---x---------9--x---------9--x---------9--x---------||--10-----------10-----------10-----------10---------||----------------------------------------------------|
Gtr.2
|------------------------------------------||------------------------------------------||--4/14-----------------14/4---4/14--------||------------------------------------------||------------------------------------------||------------------------------------------|
‘Please get some medication………’ Gtr.1
|--1212121212121212121212121212-----|-------------------||---0-0-0-0-0-0-0-0-0-0-0-0-0-0-----|--12-10------------||---0-0-0-0-0-0-0-0-0-0-0-0-0-0--x3-|--------12-11-11---||---x-x-x-x-x-x-x-x-x-x-x-x-x-x—----|-------------------||--1010101010101010101010101010-----|-------------------||-----------------------------------|-------------------|
Gtr.2
|---------------------|-----------------------------------|---------------------|--------------------------15-------|---------------------|--------------------16-14----16----|--12-12-12-12-1414---|--17-17-17-17-1717-----------------|---x--x--x--x--x-x---|-----------------------------------|--10-10-10-10-1212---|-----------------------------------
--15-17-19----15-15-15-19----15-15-15----15--------------------------17-------------17----------17----17-15----15-----------------------------------------------------16------------------------------------------------------------------------------------------------------------------------------------------------------------------------------------
------------------|--------15--------|--16-14----16-16--|------------------|------------------|------------------|
‘Pallbearer we are and all that………’ Gtr.1
|--------------------------------------------xx---xx----||--------------------------------------------xx---xx----||--9999999/1212121212121212/1919191919191919-xx---xx----||--xxxxxxx--x-x-x-x-x-x-x-x--x-x-x-x-x-x-x-x-xx-9-xx-7--||--7777777/1010101010101010/1717171717171717-xx-9-xx-7--||--------------------------------------------xx-7-xx-5--|
Gtr.2
|-----------------------------------||-----------------------------------||----------------------------4--2---||----------------------------4--2---||----4-4-----5-5---3-3-3-3---2--0---||--0-----0-0-----0---------0--------|
Pre-chorus Gtr.1
|----------------------||----------------------||----------------------||----------------------||-----9-10-----9-10----||--7--7--7--8--8--8----|
Gtr.2
|---------------||---------------||---------------||---------------||--2--------3---||---------------|
Chorus Gtr.1
|---------------------------------------------------------|--12121212--12121212--1212---12121212--12121212--1212----|---x-x-x-x---x-x-x-x---x-x----x-x-x-x---x-x-x-x---x-x----|--10101010--10101010--1010---10101010--10101010--1010----|---------------------------------------------------------|---------------------------------------------------------
---------------------------------------------------------|------------------------------12-------------------------|----0--------------------------0-------------------------|----x--------------------------x-------------------------|---10-------------------------10-------------------------|---------------------------------------------------------|
Gtr.2
|----------------------12-------------------------12------|-------------------------12-------------------------12---|--12121212--12121212---------12121212--12121212----------|--14141414--14141414---------14141414--14141414----------|---------------------------------------------------------|---------------------------------------------------------
---------------------------------------------------------|---------------------------------------------------------|---------------------------------------------------------|---------------------------------------------------------|--10---------------------------12------------------------|---8---------------------------10------------------------|
Tap to rate this tab
 
# A B C D E F G H I J K L M N O P Q R S T U V W X Y Z