At The Drive In – 300mhz tab

Track: 300mHz
Artist: At The Drive-In
Album: Vaya
Tabbed by: Dave The Bookie (dave_the_bookie@hotmail.com)

Standard Tuning (E B G D A E)

Opening Riff

Gtr.1

|----------------------------------------------||----------------------------------------------||--0-2—0-2—0-2—0-2--5-------------------5------||-----------------------0-4-0-7-0-4-0-7--------||----------------------------------------------||----------------------------------------------|
Gtr.2
|----------------------------------------------||----------------------------------------------||--22--22--22--22/5-----22--22--22--22/5-------||--22--22--22--22/5-----22--22--22--22/5-------||--00--00--00--00-------00--00--00--00---------||----------------------------------------------|
Verse Gtr.1
|--------------------||--------------------||------0-------------||--2h4---4-2h4-------||--------------------||--------------------|
Gtr.2
|----------------------------------------------|----------------------------------------------|----------------------------------------------|----------------------------------------------|--3------------2-----1-0---0---------0--------|-------------------------3-2-------0-2--------
----------------------------------------------|----------------------------------------------|----------------------------------------------|----------------------------------------------|--3-----------2------------1------------------|----------------------------------------------|
Gtr.1
|--3333333333332h3-----|--33333333222200-----||----------------------|---------------------||----------------------|---------------------||----------------------|---------------------||----------------------|---------------------||----------------------|---------------------|
For Gtr.2, just hit an A5 chord all the way through. Gtr.1
(Clean) (Distorted)|----------------------|----------------||----------------------|----------------||----2-----------------|----------------||---2------------------|----------------||--0-------------------|---0--0---------||----------------------|---3--2---------|
Gtr.2
|----0-8-9-8-0------0---0---0------------------||--10----------10-----11--12----0--------------||----------------10-----------8----------------||----------------------------------------------||----------------------------------------------||----------------------------------------------|
Gtr.1 continues to hit a distorted A5 chord, Gtr.2 goes back to the verse riff whilst Gtr.3 plays this mini solo:
|-----------------9-------------||--7-99-0-7-99-10--10-77-9------||-------------------------------||-------------------------------||-------------------------------||-------------------------------|
Outro
Gtr.1|------------------------------------------------||------------------------------------------------||------------------------------------------------||-------------------------------------------4----||--3---------2----------1----------0--------4----||-------------------------------------------2----|
Gtr.2
|------------------------------------------------||------------------------------------------------||------------------------------------------------||------------0---------------------2--------4----||--3--------------------1----------0--------4----||-------------------------------------------2----|
Please rate this tab:
x1.0