At The Drive In - 198d tab

Track: 198d
Artist: At The Drive-In
Album: Vaya
Tabbed by: Dave The Bookie (dave_the_bookie@hotmail.com)

Standard Tuning (E B G D A E)

Gtr.1

|----------------------------||----------------------------||----------------------------||--7---7---7---7---7---7-5---||----------------------------||----------------------------|
Gtr.2 (w/long delay)
|--5-3--3p2h3p2--------------5-3—3p2--------------||----------------3-2--2p0-----------0--3-2—2p0----||-------------------------------------------------||-------------------------------------------------||-------------------------------------------------||-------------------------------------------------|
Verse Gtr.1
|--17--15-14-----14-----17--15-14------------||------------17-----15------------17--15-----||--------------------------------------------||--------------------------------------------||--------------------------------------------||--------------------------------------------|
Chorus Gtr.1
|-------------------------------||---------------0---------------||--14--12—12p11-----------------||---x---x--x--x---12--11--9-----||--12--10-10-10----x---x--x-----||-----------------10---9--7-----|
Gtr.2 plays chords E and B through the chorus Gtr.1
Let ring………………………………………………………………………………………|--------------------------------------------||--------------------------------------------||--------------------------------------------||--------------------------------------------||--------------------------------------------||--7------------5------------3---------------|
Post-Chorus Gtr.1
|--------------------------------------------||--------------------------------------------||--------------------------------------------||--------------------7*----------------------||--------------------------------------------||--7-------5---------------------------------|
Gtr.2
|--2---------0---------------------||----3-----2---2----------3--------||------4---------2------4----------||--------------------5-------------||----------------------------------||----------------------------------|
Middle Gtr.1
|--17-----15-----14--------------------||------------------17-15------15-------||--------------------------16----------||--------------------------------------||--------------------------------------||--------------------------------------|
Gtr.2
|--2-------------0----------------------------|---5-5-5---||--------------2---2----------3---3---3---3---|-----------||-----0---------------------4---4---4---4-----|-4---------||-------0-------------0-----------------------|-----------||-----------0---------------------------------|-----------||---------0-------------0-3-------------------|-----------|
Break Gtr.1
|-------------------------------------------------||-------------------------------------------------||-11------------9-------------7-7----7-7----7-7---||--0------------0-------------x-x----x-x----x-x---||--9------------7-------------5-5----5-5----5-5---||-------------------------------------------------|
Gtr.2
|-------------------------------------------------||-------------------------------------------------||--11---------------------------------------------||---0-------------------------5-5----5-5----5-5---||---0-------------------------5-5----5-5----5-5---||-----------------------------3-3----3-3----3-3---|
Tap to rate this tab
 
# A B C D E F G H I J K L M N O P Q R S T U V W X Y Z