At The Gates - The Architects tab

Note - differs slightly from regular and solo is made up similarly but not
the same but it still pretty good fix it if you want...

-----------------------------------------------------------------------------
			     The Architects - At The Gates
-----------------------------------------------------------------------------
"Alien to our own spirits, we are naked even in death.  The dawn has yet to come 
to fill us with knowledge. " 
 
Tuning: B E A D F# B (2.5 steps down)

|---------------||---------------||---------------|x2|-------------3-||-3-2--3-2----1-||-1-0--1-0-321--| ...
|------------------||------------------||------------------|x2|------------------||-3-2--3-2-5555p4~-||-1-0--1-0---------|
|--------------------------||--------------------------||----------4---------------|x2|--------3--------5555p4-4-||-3-2---------3-2----------||-1-0-321-0-0-1-0----------| ... . .
|-----------------------------------||-----------------------------------||-----------------------------------|x2|-----------------------------------||-333222222-5-3-2-3332225555555p3p2-||-----------------------------------| . . .
|-----------------------------| |-----||-----------------------------| |-----||-----------------------------|x2 |-----||-----------------------------| |-----||-----------------------------| |---3-||-321-555555552-321-555555552-| |-321-| ... ... ..
|------------------------------| |---------------------------||------------------------------| |---------------------------||------------------------------|x2 |---------------------------||-333322225555---333322225-----| |-555333222---555544447-----||------------------------------| |---------------------------||-------------321----------321-| |----------321----------321-| ... ... ... ...
|---------------------------------------||---------------------------------------||---------------------------------------||---------------------------------------||---------------------------------------||---------------------------------------|x3|-----2---3-----2------2---3-----2------||-----2---3-----2------2---3-----2------||---------------------------------------||---------------------------------------||-0-1---21--0-1--210-1---21--0-1---21---||-0-1---21--0-1--210-1---21--0-1---21---| . . .. . . ... . .. . . .. . . .. . . ... . .. . . ..
|-----------------------------| |-----||-----------------------------| |-----||-----------------------------|x2 |-----||-----------------------------| |-----||-----------------------------| |---3-||-321-555555552-321-555555552-| |-321-| ... ... ..
|------------------------------| |---------------------------||------------------------------| |---------------------------||------------------------------|x2 |---------------------------||-333322225555---333322225-----| |-555333222---555544447-----||------------------------------| |---------------------------||-------------321----------321-| |----------321----------321-| ... ... ... ...
|---------------------------------------||---------------------------------------||---------------------------------------||---------------------------------------||---------------------------------------||---------------------------------------|x3|-----2---3-----2------2---3-----2------||-----2---3-----2------2---3-----2------||---------------------------------------||---------------------------------------||-0-1---21--0-1--210-1---21--0-1---21---||-0-1---21--0-1--210-1---21--0-1---21---| . . .. . . ... . .. . . .. . . .. . . ... . .. . . ..
|----------------------------------| |-------------------------------||----------------------------------| |-------------------------------||-----------------------------3333-|x3 |-------------------------------||-333322225555----555544442222-----| |-333322225555----555544442-----||----------------------------------| |-------------------------------||--------------321-----------------| |--------------321--------------| ... ...
|---------------||---------------||---------------|x2|-------------3-||-3-2--3-2----1-||-1-0--1-0-321--| ...
Pause for "We're going down"
|-------------------------------||-------------------------------||-------------------------------|x4|-------------------------------||-7p6--6-6-----7p6-6-6-4--4h5p4-||----------5--------------------|
|----------------------------------10-9-----12bhr-15-13-12-----------------||-------------------------11-10---------11~----------------15-13-12-12~----||---------11b-10~-9-11-12-------11-----------------------------------------||-9-11-12------------------------------------------------------------------||--------------------------------------------------------------------------||--------------------------------------------------------------------------|
|------------------------------11-12-15-14~-12.13.12.15.13.12.12.13.12.||---------------------10-12-13-----------------------------------------||---------10-12-13-12~-------------------------------------------------||10-11-13--------------------------------------------------------------||----------------------------------------------------------------------||----------------------------------------------------------------------|
15.13.12-12-0-13-0-15-0------|------------------------13-12|-----------------------------|-----------------------------|-----------------------------|-----------------------------|
|----------------------------------| |-------------------------------||----------------------------------| |-------------------------------||-----------------------------3333-|x3 |-------------------------------||-333322225555----555544442222-----| |-333322225555----555544442-----||----------------------------------| |-------------------------------||--------------321-----------------| |--------------321--------------| ... ...
|---------------------------||---------------------------||---------------------------|x2|-------------3-------------||-3-2--3-2----1-3-2--3-2----||-1-0--1-0-321--1-0--1-0-32-| ... ..
|--------------------------||--------------------------||----------4---------------|x2|--------3--------5555p4-4-||-3-2---------3-2----------||-1-0-321-0-0-1-0----------| ... . .
|-----------------------------------||-----------------------------------||-----------------------------------|x2|-----------------------------------||-333222222-5-3-2-3332225555555p3p2-||-----------------------------------| . . .
|-----||-----||-3-2-||-1-0-|
Tap to rate this tab
 
# A B C D E F G H I J K L M N O P Q R S T U V W X Y Z