Atheist - Unqestionable Presence tab

                   UNQUESTIONABLE PRESENCE
                             As recorded by Atheist
                  (From the 1991 Album UNQUESTIONABLE PRESENCE)
Standard Tuning

Intro Q=170 N.C. 4/4 Gtr III|------------------|-----------------------||------------------|-----------------------||------------------|-----------------------||---4---4----4---4-|------4---4------4---4-||------------------|-----------------------||-2---2----2---2---|---2----2-----2----3---|
|
| Gtr IV| <|------------------|-----------------------||---------14-------|-(14)-------(14)-------||------------------|-----------------------||------------------|-----------------------||------------------|-----------------------||------------------|-----------------------|
|---------------------|---------------------||---------------------|---------------------||---------------------|---------------------||----4---4------4---4-|----4---4------4---4-||---------------------|---------------------||--0---0-----0----3---|--2---2-----2----2---|
|
| < <|---------------------|---------------------||---------------------|---------------------||-14-------(14)-------|-11-------(11)-------||---------------------|---------------------||---------------------|---------------------||---------------------|---------------------|
|--------------------|---------------------------||--------------------|---------------------------||--------------------|---------------------------||------4---4---4---4-|----4---4---4--------------||--------------------|---------------------------||---2----2---2---3---|--0---0---0-----3----------|
|
| > <|--------------------|---------------------------||--------------------|-17-----------(17)b19-(17)-||-(11)---------------|---------------------------||--------------------|---------------------------||--------------------|---------------------------||--------------------|---------------------------|
|----------------------|-------------------------||----------------------|-------------------------||----------------------|-------------------------||---8--------8---8---8-|------8-------8---8---8--||----------------------|-------------------------||-6----6-------6---6---|---6------6-----6---6----|
|
| < >|----------------------|-------------------------||----------------------|-------------------------||-----14b15============|=(14)---(14)r------------||----------------------|-------------------------||----------------------|-------------------------||----------------------|-------------------------|
|--------------------------|----------------------||--------------------------|----------------------||--------------------------|----------------------||--------8---8---8-------8s|=7----7---7-----7---7s||--------------------------|----------------------||--5-------5---5-----5-----|-5------5----5----5---|
|
| < <|--------------------------|----------------------||--------------------------|----------------------||-14pb15r==========(14)\---|-9b10-------(9)-------||--------------------------|----------------------||--------------------------|----------------------||--------------------------|----------------------|
|------------------------|----------------------------||------------------------|----------------------------||------------------------|----------------------------||--8--8---8---8--------8-|------8------8-------8---8--||------------------------|----------------------------||--6----6---6----6-------|---6------6------6-----6----|
|
| > < >|------------------------|----------------------------||------------------------|----------------------------||-(9)-----------14b15====|=(14)---(14)---(14)r--------||------------------------|----------------------------||------------------------|----------------------------||------------------------|----------------------------|
|-------------------------|-------------------||-------------------------|-------------------||-------------------------|-------------------||--------8---8---8------8s|=7-7---7-----7---7-||-------------------------|-------------------||--5-------5---5-----5----|-5---5----5----5---|
|
| < <|-------------------------|-------------------||-------------------------|-------------------||-14pb15r==========(14)---|-9-------(9)-------||-------------------------|-------------------||-------------------------|-------------------||-------------------------|-------------------|
|------------------|---------------------------||------------------|---------------------------||------------------|---------------------------||---4---4---4----4-|---------4---4------4---4--||------------------|---------------------------||-2---2---2----2---|---2-------2-----2----3----|
|
| <|------------------|---------------------------||-------------17---|-(17)b19-------(17)--------||------------------|---------------------------||------------------|---------------------------||------------------|---------------------------||------------------|---------------------------|
|-----------------|-----------------------|-----------------------||-----------------|-----------------------|-----------------------||-----------------|-----------------------|-----------------------||---4---4---4---4-|---4---4---------4---4-|------4---4------4---4-||-----------------|-----------------------|-----------------------||-0---0---0---3---|-2---2----2--------2---|---2----2-----2----3---|
|
| < >|-----------------|-----------------------|-----------------------||-----------------|---------17pb19========|=(17)r======(17)-------||-----------------|-----------------------|-----------------------||-----------------|-----------------------|-----------------------||-----------------|-----------------------|-----------------------||-----------------|-----------------------|-----------------------|
Faster Q=202 F#5|-------------------------||--------------|-----|||-------------------------||--------------|-----|||-------------------------||--------------|-----|||---4---4---------4--(4)--||--------------|-----|||-------------------------||--4-----------|-----|||-0---0----0----------3---||--2-----------|-----||
|
| <|-------------------------||--------------|-----|||---------17pb19====(17)r=||=17b19--------|-----|||-------------------------||--------------|-----|||-------------------------||--------------|-----|||-------------------------||--------------|-----|||-------------------------||--------------|-----||
Pre-Verse N.C. 7/8 10/8 Gtrs I, II PM----------------------------------------------------------------------||---------------|---------------|---------------------|----------------------||---------------|---------------|---------------------|----------------------||---------------|---------------|---------------------|----------------------||---4---4-------|---4---4-------|---4---4-------------|---4---4--------------||---------4-3---|---------4-3---|---------4-3---4-3---|---------4-3---4-3----||-2---2-------5-|-2---2-------5-|-2---2-------5-----5-|-2---2-------5-----3--|
7/8 Gtr I PM---------------------------------|-----------------|-----------------||-----------------|-----------------||-----------------|-----------------||----4----4-------|----4----4-------||-----------4-3---|-----------4-3---||-2-----2-------5-|-2-----2-------5-|
|
| Gtr II|-----------------|-----------------||-----------------|-----------------||-----------------|-----------------||-----------------|-7-(7)-----------||-9-(9)-----------|-----------------||-----------------|-----------------|
10/8 --------------------------------------------------||-------------------------|-------------------------------||-------------------------|-------------------------------||-------------------------|-------------------------------||----4---4----------------|----4-----4--------------------||----------4-3---4---3----|-------------4-3----4-3--------||--2---2-------5--------5-|-2----2----------5--------3----|
|
|-------------------------|-------------------------------||-------------------------|-------------------------------||-------------------------|---11---(11)-------14---(14)\--||-11---------------(11)---|-------------------------------||-------------------------|-------------------------------||-------------------------|-------------------------------|
7/8 PM---------------------------------|-----------------|-----------------||-----------------|-----------------||-----------------|-----------------||----4----4-------|----4----4-------||-----------4-3---|-----------4-3---||-2-----2-------5-|-2-----2-------5-|
|
|-----------------|-----------------||-----------------|-----------------||-----------------|-----------------||-----------------|-----------------||-----------------|-----------------||-2-(2)-----------|-5-(5)-----------|
10/8 -----------------------------------------------||-----------------------|--------------------------|||-----------------------|--------------------------|||-----------------------|--------------------------|||---4---4---------------|---4---4------------------|||---------4-3---4--3----|---------4-3-----4--3-----|||-2---2-------5-------5-|-2---2--------5--------3--||
|
|-----------------------|--------------------------|||-----------------------|--------------------------|||-----------------------|--------------------------|||-----------------------|-----------------7-(7)----|||-----------------------|-9-----------(9)----------|||-9---------------(9)---|--------------------------||
Q=124 F#5 4/4 3/4|----------|-----------------------|||----------|-----------------------|||----------|-----------------------|||----------|-----------------------|||-4--------|-(4)--7s=9---(9)--(9)\-|||-2--------|-(2)-------------------||
|
| ~~~~~~~~|----------|-12-----14--(14)-(14)\-|||----------|-----------------------|||-6--------|-----------------------|||----------|-----------------------|||----------|-----------------------|||----------|-----------------------||
Verse Q=172 F#5 E/A C#5 B/E A/F# 4/4|-----------|-----------|----------|--------||-----------|-----------|----------|--------||-6----4----|-----------|----------|--------||-4----2----|-6----4----|----------|--------||-----------|-4----2----|-7--------|-(7)----||-----------|-----------|-5--------|-(5)----|
|
|-----------|-----------|----------|--------||-----------|-----------|----------|--------||-----------|------4----|-6--------|-(6)----||-----------|-6----2----|-4--------|-(4)----||-4----7----|-4---------|----------|--------||-2----5----|-----------|----------|--------|
F#5 E/A C#5 B A/E F#5|-----------|-----------|------------|---------||-----------|-----------|------------|---------||-6----4----|-----------|------------|---------||-4----2----|-6----4----|------------|---------||-----------|-4----2----|-7-----4----|--(4)----||-----------|-----------|-5-----2----|--(2)----|
|
|-----------|-----------|------------|---------||-----------|-----------|------------|---------||-----------|-----------|------------|---------||-----------|-6----9----|-9----11----|-(11)----||-4----7----|-4----6----|-7-----9----|--(9)----||-2----5----|-----------|------------|---------|
F#5 E/A C#5 B A/E|-----------|-----------|----------|--------||-----------|-----------|----------|--------||-6----4----|-----------|----------|--------||-4----2----|-6----4----|----------|--------||-----------|-4----2----|-7--------|-(7)----||-----------|-----------|-5--------|-(5)----|
|
|-----------|-----------|----------|--------||-----------|-----------|----------|--------||-----------|-----------|----------|--------||-----------|-6----9----|-9--------|-(9)----||-4----7----|-4----6----|-7--------|-(7)----||-2----5----|-----------|----------|--------|
Q=202 F#5 E/A C#5 E5 F#5 N.C. 3/4 PM--------||-----------|-----------|-----------|-------------||-----------|-----------|-----------|-------------||-6----4----|-----------|-----------|-------------||-4----2----|-6---------|-----------|-------------||-----------|-4----2----|--4--------|-4-3---4-3---||-----------|------0----|--2--------|-----5-----3-|
|
| PM--------||-----------|-----------|-----------|-------------||-----------|-----------|-----------|-------------||-----------|-----------|-----------|-------------||-----------|-6----9----|-11--------|-------------||-4----7----|-4----7----|--9--------|-4-3---4-3---||-2----5----|-----------|-----------|-----5-----3-|
N.C. 7/8 10/8 Gtrs I, II PM------------------------------------------------|||----------------|---------------|---------------------|||o---------------|---------------|---------------------|||----------------|---------------|---------------------|||----4---4-------|---4---4-------|---4---4-------------|||o---------4-3---|---------4-3---|---------4-3---4-3---|||--2---2-------5-|-2---2-------5-|-2---2-------5-----5-|
F#5 G5 F#5 PM----------------||----------------------||--------------||---------------------o||--------------||----------------------||--------------||---4---4--------------||--------------||---------4-3---4-3---o||-4----5--4----||-2---2-------5-----3--||-2----3--2----|
Pre-Chorus Q=135 F#5 (A) BbA5Eb5 B5 F#5 (A) BbA5EbB5 4/4 PM| PM| PM| 3x
||------------------------||--------------------||||o----------------------o||--------------------||||------------------------||--------------------||||--------------8---------||-------------8------||||o-4-4-----8-7-6-----9\-o||-4-4-----8-7-6-9\-2-||||--2-2-5-5-6-5---0-0-7\--||-2-2-5-5-6-5---7\-0-||
Chorus 1 (F#) (A/C#) (A5) (F#5) (A) (B/F#) Gtr I ~ ~|-----------------|----------|-----------------|------||-----------------|----------|-----------------|------||-----------------|----------|-----------------|------||--------7-(7)----|----------|--------7-(7)----|-9----||-9--(9)----------|-7--------|-9--(9)----------|------||-----------------|----------|-----------------|------|
|
| Gtr II| ~ ~|-----------------|----------|-----------------|------||-----------------|----------|-----------------|------||-----------------|----------|-6--(6)----------|------||-----------------|----------|--------7-(7)----|------||-9--(9)-4-(4)----|----------|-----------------|-9----||-----------------|-5--------|-----------------|------|
(F#) (A) (A/E) (F#) (A/C#) N.C. Gtr I ~|-------------------|----------|-----------------|---------------------|||-------------------|----------|-----------------|---------------------|||-------------------|----------|-----------------|---------------------|||----------7-(7)----|----------|--------7-(7)----|-9b10=====(9)r=(9)---|||--9---(9)----------|-7--------|-9--(9)----------|---------------------|||-------------------|----------|-----------------|---------------------||
|
| Gtr II| ~|-------------------|----------|-----------------|---------------------|||-------------------|----------|-----------------|---------------------|||-11--(11)-6-(6)----|----------|-----------------|---------------------|||-------------------|-7--------|-----------------|---------------------|||-------------------|----------|-9--(9)-4-(4)----|-2b3======(2)r=(2)---|||-------------------|----------|-----------------|---------------------||
|
| Gtr V|-------------------|----------|-----------------|---------------------|||-------------------|----------|-----------------|----------------7s===|||-------------------|----------|-----------------|---------------------|||-------------------|----------|-----------------|---------------------|||-------------------|----------|-----------------|---------------------|||-------------------|----------|-----------------|---------------------||
Lead: Burkey F#5 Bb5 A5 Eb5 B5 Gtr V|-------14------------14-------14-17p14h16p14------------14---17p14h=16p14-||-17b19----17b19-(17)----17b19----------------17b19-(17)-------------------||--------------------------------------------------------------------------||--------------------------------------------------------------------------||--------------------------------------------------------------------------||--------------------------------------------------------------------------|
|
| Gtrs I, II| PM-| PM----||--------------------------------------------------------------------------||--------------------------------------------------------------------------||--------------------------------------------------------------------------||-------------------------------------------8------------------------------||--4-----4----------------8--------7--------6---------------------9\-------||--2-----2---------5---5--6--------5------------------0-----0-----7\-------|
F#5 Bb5 A5 Eb5 B5 ~~~~~|---------14-17p14h==16p14------------14-17p14h16p14-19b21------||-17b19--------------------17b19-(17)---------------------------||---------------------------------------------------------------||---------------------------------------------------------------||---------------------------------------------------------------||---------------------------------------------------------------|
|
| PM---| PM---||---------------------------------------------------------------||---------------------------------------------------------------||---------------------------------------------------------------||--------------------------------------------8------------------||--4----4----------------8---------7---------6---------------9\-||--2----2-----5----5-----6---------5------------------0----0-7\-|
F#5 Bb5 A5 Eb5 B5|-(19)----14----14-17p14------14----------------------------------------------||------17----17------------17----17p14-17p14----14----------------------------||--------------------------------------------16----16p14-16p14------14--------||----------------------------------------------------------------16-----16p14-||-----------------------------------------------------------------------------||-----------------------------------------------------------------------------|
|
| PM---| PM---||-----------------------------------------------------------------------------||-----------------------------------------------------------------------------||-----------------------------------------------------------------------------||------------------------------------------------8----------------------------||---4------4-------------------8--------7--------6-------------------9\-------||---2------2--------5----5-----6--------5-----------------0----0-----7\-------|
F#5 Bb5 A5 Eb5 B5 ~~~~~~~|----------------------------------------------------------------------||----------------------------------------------------------------------||------------------------------------------------14-(14)---------------||-16p14----14---------------------------16-14-16-----------16--(16)\---||-------16----16p14-16p14------14--------------------------------------||---------------------------16----17p14--------------------------------|
|
| PM---| PM-||----------------------------------------------------------------------||----------------------------------------------------------------------||----------------------------------------------------------------------||----------------------------------------------8-----------------------||--4--------4-------------------8--------7-----6------------9\---------||--2--------2--------5----5-----6--------5------------0--0--7\---------|
F#5 Bb5 A5 Eb5 B5|------------------------------------------------------||------------------------------------------------------||------------------------------------------------------||------------------------------------14h16p==14-----16-||-12-------12-12-14-15-16-(16)-14-16------------16-----||----12-14---------------------------------------------|
|
| PM| PM---||------------------------------------------------------||------------------------------------------------------||------------------------------------------------------||-------------------------------8----------------------||--4-----4-----------8------7---6----------------9\----||--2-----2-----5--5--6------5---------0----0-----7\----|
F#5 Bb5 A5 Eb5 B5 ~~~~~~|---------------------------------------------------------------||---------------------------------------------------17b19=======||------------14h16p14--------14h16p14----14h==16p14-------------||-(16)-14h17------------16------------16------------------------||---------------------------------------------------------------||---------------------------------------------------------------|
|
| PM---| PM----||---------------------------------------------------------------||---------------------------------------------------------------||---------------------------------------------------------------||-------------------------------------------8-------------------||---4---4------------------8--------7-------6----------------9\-||---2---2--------5----5----6--------5----------------0-----0-7\-|
F#5 Bb5 A5 Eb5 B5|-------------14-19p14h==17p==14----14-19p14h17p14----14-19p==14h17p=14----||-(17)r-14h17--------------------17----------------17-------------------17-||--------------------------------------------------------------------------||--------------------------------------------------------------------------||--------------------------------------------------------------------------||--------------------------------------------------------------------------|
|
| PM---| PM---||--------------------------------------------------------------------------||--------------------------------------------------------------------------||--------------------------------------------------------------------------||---------------------------------------------8----------------------------||---4----4------------------8--------7--------6-------------------9\-------||---2----2--------5----5----6--------5-----------------0----0-----7\-------|
F#5 Bb5 A5 Eb5 B5 ~~~~~~~~~~~~~|-------------------------------------------------19b21====(19)---(19)r---||-14h17p14------14h17p14h17p14------14h==17p14h17-------------------------||----------16--------------------16---------------------------------------||-------------------------------------------------------------------------||-------------------------------------------------------------------------||-------------------------------------------------------------------------|
|
| PM---| PM-||-------------------------------------------------------------------------||-------------------------------------------------------------------------||-------------------------------------------------------------------------||--------------------------------------------------------8----------------||--4----------4------------------------8-----------7-----6----------9\----||--2----------2-----------5----5-------6-----------5---------0--0---7\----|
Interlude Q=212 C B N.C. Gtrs I, II PM--------------------------------------||---------------|-------------------------|||o--------------|-------------------------|||---------------|-------------------------|||--2--2--1------|-------------------------|||o-3--3--2------|-------------------------|||-----------0-0-|-0-0-0-0-0-0-2-2-0-3-3-0-|
E Eb N.C. ----------------------------------|
4x|--------------|------------------------|||--------------|-----------------------o|||--------------|------------------------|||-6--6--5------|------------------------|||-7--7--6------|-----------------------o|||----------0-0-|-6-6-6-6-6-6-6-5-5-5----||
Q=200 N.C. Gtr I||--------------------|--------------------||-|||o---10--------------|---10-11-----------o||-|||--7----10-----------|-7------------------||-|||----------7-(7)--6--|---------7-(7)--6---||-|||o-------------------|-------------------o||-|||--------------------|--------------------||-|
|
| Gtr II||--------------------|--------------------||-|||o-------------------|-------------------o||-|||--------------------|--------------------||-|||-----3--------------|----7--8------------||-|||o-5-----5-----------|-5-------8-(8)--7--o||-|||----------5-(5)--4--|--------------------||-|
N.C.||--------------------|----------------------||||o---10--------------|---10-11-------------o||||--7----10-----------|-7--------------------||||----------7-(7)--6--|----------7--(7)--6---||||o-------------------|---------------------o||||--------------------|----------------------||
|
||--------------------|----------------------||||o----6--------------|---10-11-------------o||||--7-----7-----------|-7-------10-(10)--9---||||----------7-(7)--6--|----------------------||||o-------------------|---------------------o||||--------------------|----------------------||
Chorus 2 G#5 Eb5 D5 A5 G#5 D5 A5 G#5 Eb5 D5 Gtrs I, II|------------|------------|------------|-------------||------------|------------|------------|-------------||-8----------|------------|------------|-8-----------||-6---8---7--|-7----------|-7----------|-6---8---7---||-----6---5--|-5---7---6--|-5---7---6--|-----6---5---||------------|-----5---4--|-----5---4--|-------------|
Verse (F#) N.C. Bb5 F5 E5 G#5G5 6/4 PM----------------------------------|
4x||--------------------------|-----------------------||------------------|||o-------------------------|----------------------o||------------------|||--------------------------|-----------------------||------------------|||--------------------------|-----------------------||-3----------------|||o-------------------------|-------------/6p5---5-o||-1----3--2--6--5--|||--2-2-2-2-2-2-2-2-2-2-2-2-|-2-2-2-2-2-2------6----||------1--0--4--3--|
Slow w/triplet feel Q=96 (E) N.C. E5 D5 A5 G#5 G5 4/4 PM------------------------|
4x 3x||--------------------|-------------------||-||------------------------||||o-------------------|------------------o||-||o----------------------o||||--------------------|-------------------||-||--9--7--14--13-(13)-12--||||--------------------|-------------------||-||--9--7--14--13-(13)-12--||||o-------------------|---------/7p6---6-o||-||o-7--5--12--11-(11)-10-o||||--0-0-0-0-0-0-0-0-0-|-0-0-0-0------7----||-||------------------------||
Verse Q=158 (E) (B) PM---------------------------|-----------------------------||-----------------------------||-----------------------------||-----------------------------||-7-7-7-7-7-7-7-2-2-2-2-2-2-2-||-----------------------------|
Q=202 (C) (F) F5 N.C. 3/4 ---------------------| PM--------||--------------------------||---------|--------------||--------------------------||---------|--------------||--------------------------||---------|--------------||-----------------------3--||---------|--------------||-3-3-3-3-3-3-3---------3--||---------|-4-3---4-3----||---------------1-1-1-1-1--||---------|-----5-----3--|
N.C. 7/8 10/8 PM------------------------------------------------|||----------------|---------------|---------------------|||o---------------|---------------|---------------------|||----------------|---------------|---------------------|||----4---4-------|---4---4-------|---4---4-------------|||o---------4-3---|---------4-3---|---------4-3---4-3---|||--2---2-------5-|-2---2-------5-|-2---2-------5-----5-|
F#5 G5 F#5 4/4 PM----------------||----------------------||------------||---------------------o||------------||----------------------||------------||---4---4--------------||------------||---------4-3---4-3---o||-4----5--4--||-2---2-------5-----3--||-2----3--2--|
Instrumental break N.C. 6/4 Gtr I PM-------------------| ~ PM-------------------|||--------------------------------|-------------------------------||||o-------------------------------|------------------------------o||||---------------------------8----|-------------------------------||||-----------------------------7--|-------------------------------||||o---7-7-7-7-7-7-7-7------6------|---7-7-7-7-7-7-7-7------6-6---o||||--0------------------8-5--------|-0------------------8-5--------||
|
| Gtr II| PM----------------| ~ PM--------------|||--------------------------------|-------------------------------||||o-------------------------------|------------------------------o||||----9-9-9-9-9-9-9-9--------8----|---9-9-9-9-9-9-9-9--------8----||||--------------------10-------7--|-------------------10----------||||o----------------------0-6------|----------------------0-6-----o||||--0-----------------------------|-0-----------------------------||
Chorus Q=135 (F#) (A/C#) (A5) (F#5) (A) (B/F#) 4/4 ~ ~|-----------------|----------|-----------------|------||-----------------|----------|-----------------|------||-----------------|----------|-----------------|------||--------7-(7)----|----------|--------7-(7)----|-9----||-9--(9)----------|-7--------|-9--(9)----------|------||-----------------|----------|-----------------|------|
|
| ~ ~|-----------------|----------|-----------------|------||-----------------|----------|-----------------|------||-----------------|----------|-6--(6)----------|------||-----------------|----------|--------7-(7)----|------||-9--(9)-4-(4)----|----------|-----------------|-9----||-----------------|-5--------|-----------------|------|
(F#) (A) (A/E) (F#) (A/C#) N.C. ~|-------------------|----------|-----------------|---------------------||-------------------|----------|-----------------|---------------------||-------------------|----------|-----------------|---------------------||----------7-(7)----|----------|--------7-(7)----|-9b10=====(9)r=(9)---||--9---(9)----------|-7--------|-9--(9)----------|---------------------||-------------------|----------|-----------------|---------------------|
|
| ~|-------------------|----------|-----------------|---------------------||-------------------|----------|-----------------|---------------------||-11--(11)-6-(6)----|----------|-----------------|---------------------||-------------------|-7--------|-----------------|---------------------||-------------------|----------|-9--(9)-4-(4)----|-2b3======(2)r=(2)---||-------------------|----------|-----------------|---------------------|
Outro F#5 (A) BbA5Eb5 B5 F#5 Gtrs I, II PM| PM| PM| PM| PM| 3x||------------------------||-------------------|||o----------------------o||-------------------|||------------------------||-------------------|||--------------8---------||-------------------|||o-4-4-----8-7-6-----9\-o||-4-4--4-4--4-4--4--|||--2-2-5-5-6-5---0-0-7\--||-2-2--2-2--2-2--2--|
N.C. F#5 PM--------||------------|-------------------*||------------|-------------------*||------------|-------------------*||------------|-------------------*||-(4)--------|-4-3---4-3---4-----*||-(2)--------|-----5-----3-2-----*|
Tap to rate this tab
 
# A B C D E F G H I J K L M N O P Q R S T U V W X Y Z