Atreyu - Congregation Of The Damned tab

============================================================================

                      Congregation of the Damned
 
                              Atreyu
                      Congregation of the Damned
============================================================================


Tabbed by: John Moores
           mooresjw@mail.uc.edu

Tuning: Drop C  (CGCFAD)


 *  = Palm Mute
 @  = Pinched harmonic
 x  = muted
(5) = natural harmonic on said fret
 b  = bend string
 r  = return string


Intro


Guitar I0:05|----------------------------------------||---/10---12//13--12---/15-13\12---------||----------------------------------------||----------------------------------------| x2|----------------------------------------||----------------------------------------|
Guitar II0:05|----------------------------------------||----------------------------------------||----------------------------------------||---7------------6-----3-----------------| x2|---7------------6-----3-----------------||---7------------6-----3-----------------|
Guitar III0:10|----------------------------------------||---/13---15//17--15---/18-17\15---------||----------------------------------------||----------------------------------------||----------------------------------------||----------------------------------------|
Verse 1 0:15
Guitar I|--0------------------------------0-----------------------||--1------------------------------0-----------------------||--2------------------------------9-----------------------||--2------------------------------9-----------------------||--0------------------------------7-----------------------||---------------------------------------------------------|
|--0------------------------------0-----------------------||--1------------------------------1-----------------------||--2------------------------------2-----------------------||--2------------------------------2-----------------------||--0------------------------------0-----------------------||---------------------------------------------------------|
Guitar IIStaccato notes here|--------------------------------------------------------------||-10-10---13p10---10-10-13p10--10-9-9---12p9---9-9-12p9--9-----||--------------------------------------------------------------||--------------------------------------------------------------||--------------------------------------------------------------||--------------------------------------------------------------|
|--------------------------------------------------------------||-10-10---13p10---10-10-13p10--10--10-10---13p10---10-10-13p10-||--------------------------------------------------------------||--------------------------------------------------------------||--------------------------------------------------------------||--------------------------------------------------------------|
Pre-chorus 0:25
Guitar I|----------------------------------------||---/10---12//13--12---/15-13\12---------||----------------------------------------||----------------------------------------| x2|----------------------------------------||----------------------------------------|
Guitar II|-----------------------------------------||-----------------------------------------||--2--------------------------------------||--2------2--------5------0---------------||--0------2--------5------0---------------||---------2--------5------0---------------|
Chorus 0:36
Guitar I|-----------------------------------------------------||-----------------------------------------------------||--5-------2------5------2-------5-----2--------------||--5-------2------5------2-------5-----2-----0----3---| x2|--3-------0------3------0-------3-----0-----0----3---||--------------------------------------------0----3---|
Guitar II|----------------------------------------||--/10-12-13-10-10~--/10-12-13-10-10~----||----------------------------------------||----------------------------------------||----------------------------------------||----------------------------------------|
x2|----------------------------------------||--/10-12-13-10-10~--10-/13-12-10-10~----||----------------------------------------||----------------------------------------||----------------------------------------||----------------------------------------|
Intro Riff 0:57
Guitar I|----------------------------------------||---/10---12//13--12---/15-13\12---------||----------------------------------------||----------------------------------------| x2|----------------------------------------||----------------------------------------|
Guitar II|----------------------------------------||----------------------------------------||----------------------------------------||---7------------6-----3-----------------| x2|---7------------6-----3-----------------||---7------------6-----3-----------------|
Guitar III|----------------------------------------||---/10---12//13--12---/15-13\12---------||----------------------------------------||----------------------------------------| x2|----------------------------------------||----------------------------------------|
Verse 2 1:07
Guitar I|--0------------------------------0-----------------------||--1------------------------------0-----------------------||--2------------------------------9-----------------------||--2------------------------------9-----------------------||--0------------------------------7-----------------------||---------------------------------------------------------|
|--0------------------------------0-----------------------||--1------------------------------1-----------------------||--2------------------------------2-----------------------||--2------------------------------2-----------------------||--0------------------------------0-----------------------||---------------------------------------------------------|
Guitar IIStaccato notes here|--------------------------------------------------------------||-10-10---13p10---10-10-13p10--10-9-9---12p9---9-9-12p9--9-----||--------------------------------------------------------------||--------------------------------------------------------------||--------------------------------------------------------------||--------------------------------------------------------------|
|--------------------------------------------------------------||-10-10---13p10---10-10-13p10--10--10-10---13p10---10-10-13p10-||--------------------------------------------------------------||--------------------------------------------------------------||--------------------------------------------------------------||--------------------------------------------------------------|
Pre-chorus 1:18
Guitar I|----------------------------------------||---/10---12//13--12---/15-13\12---------||----------------------------------------||----------------------------------------| x2|----------------------------------------||----------------------------------------|
Guitar II|-----------------------------------------||-----------------------------------------||--2--------------------------------------||--2------2--------5------0---------------||--0------2--------5------0---------------||---------2--------5------0---------------|
Chorus 1:28
Guitar I|-----------------------------------------------------||-----------------------------------------------------||--5-------2------5------2-------5-----2--------------||--5-------2------5------2-------5-----2-----0----3---| x2|--3-------0------3------0-------3-----0-----0----3---||--------------------------------------------0----3---|
Guitar II|----------------------------------------||--/10-12-13-10-10~--/10-12-13-10-10~----||----------------------------------------||----------------------------------------||----------------------------------------||----------------------------------------|
x2|----------------------------------------||--/10-12-13-10-10~--10-/13-12-10-10~----||----------------------------------------||----------------------------------------||----------------------------------------||----------------------------------------|
Bridge
Guitar I1:49|-----------------------------------------------------||--/13--13h15p13\12~\---/12--12h13p12/10\\------------||-----------------------------------------------------||-----------------------------------------------------||-----------------------------------------------------||-----------------------------------------------------|
x2|-----------------------------------------------------||--/12--12h13p12/10\\------/12--13--/15~\-------------||-----------------------------------------------------||-----------------------------------------------------||-----------------------------------------------------||-----------------------------------------------------|
Guitar II1:59|-----------------------------------------------------||--/17--17h18p17\15~\---/15--15h17p15/13\\------------||-----------------------------------------------------||-----------------------------------------------------||-----------------------------------------------------||-----------------------------------------------------|
|------------------------------------------//15///21--||--/15--15h17p15/13\\------/13--15--/17~\-------------||-----------------------------------------------------||-----------------------------------------------------||-----------------------------------------------------||-----------------------------------------------------| ^ This last slide is muted right at the end
Break 2:10
Guitars I and II|-----------------------------------------------------||-----------------------------------------------------||-----------------------------------------------------||-----------------------------------------------------||-----------------------------------------------------||-000-000-000-000-000-000-000-000-000-000-000-000-000-| *** *** *** *** *** *** *** *** *** *** *** *** *** ^ You should get the idea, hopefully
|-----------------------------------------------------||-----------------------------------------------------||-----------------------------------------------------||-------------------------------------2--3--5---------||-------------------------------------2--3--5---------||-000-000-000-000-000-000-000-000-000-2--3--5---------| *** *** *** *** *** *** *** *** ***
Chorus 2:21
Guitar I|-----------------------------------------------------||---10--------------------10--10--10~-----------------||-----------------------------------------------------||----------------------------------------0-----3------||----------------------------------------0-----3------||----------------------------------------0-----3------|
Guitar II|-----------------------------------------------------||-----------------------------------------------------||-----------------------------------------------------||---7------------------------------------0-----3------||---7------------------------------------0-----3------||---7------------------------------------0-----3------|
Chorus 2:31
Guitar I|-----------------------------------------------------||-----------------------------------------------------||--5-------2------5------2-------5-----2--------------||--5-------2------5------2-------5-----2-----0----3---| x3|--3-------0------3------0-------3-----0-----0----3---||--------------------------------------------0----3---|
Guitar II|----------------------------------------||--/10-12-13-10-10~--/10-12-13-10-10~----||----------------------------------------||----------------------------------------||----------------------------------------||----------------------------------------|
x3|----------------------------------------||--/10-12-13-10-10~--10-/13-12-10-10~----||----------------------------------------||----------------------------------------||----------------------------------------||----------------------------------------|
3:02 3:12|--------------------| |--------------------||--------------------| |--------------------||--5-------2---------| |--5-------2---------||--5-------2---------| |--5-------2---------||--3-------0---------| |--3-------0---------||--------------------| |--------------------|
3:20
Guitar I|--------------------||--/13-----13~~------||--------------------||--------------------||--------------------||--------------------|
Guitar II |--------------------||--------------------||--5-------2---------| |--5-------2---------| |--3-------0---------| |--------------------|
Please rate and leave comments!! Especially for improvements!
Tap to rate this tab
 
# A B C D E F G H I J K L M N O P Q R S T U V W X Y Z