Atreyu - Five Vicodin Chased With A Shot Of Clarity tab

FIVE VICODIN CHASED WITH A SHOT OF CLARITY
As recorded by Atreyu
(From the 2004 Album THE CURSE)
Words and Music by Atreyu
Arranged by Atreyu

Gtr I (C G C F A D) - 'Untitled'
Gtr II (C G C F A D) - 'Untitled'
Gtr III (C G C F A D) - 'Untitled'

Intro Moderately Slow Rock Q=92 D6 Dm C Bb5 4/4 Gtrs I, II|----------|------------|----------|------||----------|------------|----------|------||----------|------------|----------|------||-0--------|--3---------|-2--------|-3----||-1--------|--5---------|-3--------|-1----||-0--------|-(0)--------|----------|------|
D6 Dm Gtrs I, II|---------------------------------|-----------------------------------||---------------------------------|-----------------------------------||---------------------------------|-----------------------------------||-0-------------------------------|--3--------------------------------||-1-------------------------------|--5--------------------------------||-0-------------------------------|-(0)-------------------------------|
|
| Gtr III|---------------------------------|-----------------------------------||---------------------------------|-----------------------------------||-7-7-7-7-7-7-7-7-7-7-7-7-7-7-7-7-|--7--7-7-7-7-7-7-7-7-7-7-7-7-7-7-7-||-x-x-x-x-x-x-x-x-x-x-x-x-x-x-x-x-|--x--x-x-x-x-x-x-x-x-x-x-x-x-x-x-x-||-5-5-5-5-5-5-5-5-5-5-5-5-5-5-5-5-|--5--5-5-5-5-5-5-5-5-5-5-5-5-5-5-5-||---------------------------------|-----------------------------------|
C Bb5|---------------------------------|---------------------------------|||---------------------------------|---------------------------------|||---------------------------------|---------------------------------|||-2-------------------------------|-3-----------------------3-------|||-3-------------------------------|-1-----------------------1-------|||---------------------------------|---------------------------------||
|
|---------------------------------|---------------------------------|||---------------------------------|---------------------------------|||-7-7-7-7-7-7-7-7-7-7-7-7-7-7-7-7-|-7-7-7-7-7-7-7-7-7-7-7-7-7-7-7-7-|||-x-x-x-x-x-x-x-x-x-x-x-x-x-x-x-x-|-x-x-x-x-x-x-x-x-x-x-x-x-x-x-x-x-|||-5-5-5-5-5-5-5-5-5-5-5-5-5-5-5-5-|-5-5-5-5-5-5-5-5-5-5-5-5-5-5-5-5-|||---------------------------------|---------------------------------||
Verse Double-Time Q=184 N.C. D5 Gtrs I, II PM--------------------|||------------------------|-----------------|||o-----------------------|-----------------|||------------------------|-----------------|||------------------------|-----------------|||o-----------------0-0-0-|-0-0-0-0-0-0-0-0-|||--0-3-5-(5)s8-(8)-0-0-0-|-0-0-0-0-0-0-0-0-|
N.C.|-----------------------|------------------||-----------------------|------------------||-----------------------|------------------||-----------------------|-3-2---/6-5-3-0---||-------------------5-3-|-----3------------||-0-3-5-(5)s8-(8)-0-----|------------------|
N.C. D5 PM--------------------||-----------------------|-----------------||-----------------------|-----------------||-----------------------|-----------------||-----------------------|-----------------||-----------------0-0-0-|-0-0-0-0-0-0-0-0-||-0-3-5-(5)s8-(8)-0-0-0-|-0-0-0-0-0-0-0-0-|
N.C. PM|-----------------------|--------------------|||-----------------------|-------------------o|||-----------------------|--------------------|||-----------------------|--------------------|||-----------------------|-------------------o|||-0-3-5-(5)s7-(7)-0-5s8-|-7-0-5-0-7-5-3-5----||
Pre-Chorus Bb5 Gtrs I, II||------------------------|----------------------|||o-----------------------|----------------------|||------------------------|----------------------|||---------10-(10)--------|---10-(10)------------|||o-8h10p8-----------8h10p|=8-----------8h10p8---|||------------------------|----------------------|
|
| Gtr III||------------------------|----------------------|||o-----------------------|----------------------|||------------------------|----------------------|||--8--8-8--8---8--8-8--8-|-8--8---8--8-8--8-8-8-|||o-8--8-8--8---8--8-8--8-|-8--8---8--8-8--8-8-8-|||--8--8-8--8---8--8-8--8-|-8--8---8--8-8--8-8-8-|
D5|---------------------|----------------------||---------------------|----------------------||---------------------|----------------------||-------10-(10)-------|---10-(10)------------||-7h8p7-----------7h8p|=7-----------7h8p7----||---------------------|----------------------|
|
|---------------------|----------------------||---------------------|----------------------||---------------------|----------------------||-0-0-0--0---0--0-0-0-|-0--0---0--0-0-0-0-0--||-0-0-0--0---0--0-0-0-|-0--0---0--0-0-0-0-0--||-0-0-0--0---0--0-0-0-|-0--0---0--0-0-0-0-0--|
1. C5|--------------------------|--------------------------||--------------------------|--------------------------||--------------------------|--------------------------||-----------7-(7)----------|-----7-(7)----------------||--5h=7p=5------------5h=7p|==5------------5h=7p=5----||--------------------------|--------------------------|
|
|--------------------------|--------------------------||--------------------------|--------------------------||--------------------------|--------------------------||-10-10-10-10-10--10-10-10-|-10-10-10--10-10-10-10-10-||-10-10-10-10-10--10-10-10-|-10-10-10--10-10-10-10-10-||-10-10-10-10-10--10-10-10-|-10-10-10--10-10-10-10-10-|
|--------------------------|---------------------------|||--------------------------|--------------------------o|||--------------------------|---------------------------|||-----------5-(5)----------|-----5-(5)--5--5--3--5-----|||--3h=5p=3------------3h=5p|==3-----------------------o|||--------------------------|---------------------------||
|
|--------------------------|---------------------------|||--------------------------|--------------------------o|||--------------------------|---------------------------|||-10-10-10-10-10--10-10-10-|-10-10-10--10-10-10-10-10--|||-10-10-10-10-10--10-10-10-|-10-10-10--10-10-10-10-10-o|||-10-10-10-10-10--10-10-10-|-10-10-10--10-10-10-10-10--||
2. C5|--------------------------|------------------------|-------------|---------|||--------------------------|------------------------|-------------|---------|||--------------------------|------------------------|-------------|---------|||-----------7-(7)----------|-----7-(7)--------------|-------------|---------|||--5h=7p=5------------5h=7p|==5------------5-----3--|--(3)--------|--(3)----|||--------------------------|------------------------|-------------|---------||
|
|--------------------------|------------------------|-------------|---------|||--------------------------|------------------------|-------------|---------|||--------------------------|------------------------|-------------|---------|||-10-10-10-10-10--10-10-10-|-10-10-10--10-10-10-10--|-(10)--------|-(10)----|||-10-10-10-10-10--10-10-10-|-10-10-10--10-10-10-10--|-(10)--------|-(10)----|||-10-10-10-10-10--10-10-10-|-10-10-10--10-10-10-10--|-(10)--------|-(10)----||
Chorus $ D5 F5 Ab5 Gtrs I, II|-----------------|-----------------|-------------------|-----------------||-----------------|-----------------|-------------------|-----------------||-----------------|-----------------|-------------------|-----------------||-0-0-0-0-0-0-0-0-|-0-0-0-0-0-0-0-3-|-(3)-3-3-3-3-3-3-3-|-3-3-3-3-3-3-3-6-||-0-0-0-0-0-0-0-0-|-0-0-0-0-0-0-0-3-|-(3)-3-3-3-3-3-3-3-|-3-3-3-3-3-3-3-6-||-0-0-0-0-0-0-0-0-|-0-0-0-0-0-0-0-3-|-(3)-3-3-3-3-3-3-3-|-3-3-3-3-3-3-3-6-|
Ab5 N.C. Gtr I|-------------------|------------------||-------------------|------------------||-------------------|----------------7-||-(6)-6-6-6-6-6-6---|----------------x-||-(6)-6-6-6-6-6-6---|----------------5-||-(6)-6-6-6-6-6-6-0-|-6p0-6p0-5h6-0----|
|
| Gtr II|-------------------|------------------||-------------------|------------------||-------------------|---------------12-||-(6)-6-6-6-6-6-6---|----------------x-||-(6)-6-6-6-6-6-6---|---------------10-||-(6)-6-6-6-6-6-6-0-|-6p0-6p0-5h6-0----|
D5|-------------------------|------------------------||-------------------------|------------------------||--(7)--7--10-(10)-10---3-|--(3)--3---5--(5)--5----||-------x---x-------x---x-|-------x---x-------x--0-||--(5)--5---8--(8)--8---1-|--(1)--1---3--(3)--3--0-||-------------------------|----------------------0-|
|
|-------------------------|------------------------||-------------------------|------------------------||-(12)-12--14-(14)-14--15-|-(15)-15--17-(17)-17----||-------x---x-------x---x-|-------x---x-------x--0-||-(10)-10--12-(12)-12--13-|-(13)-13--15-(15)-15--0-||-------------------------|----------------------0-|
D5 F5 Ab5 Gtrs I, II|-------------------|-----------------|-------------------|-----------------||-------------------|-----------------|-------------------|-----------------||-------------------|-----------------|-------------------|-----------------||-(0)-0-0-0-0-0-0-0-|-0-0-0-0-0-0-0-3-|-(3)-3-3-3-3-3-3-3-|-3-3-3-3-3-3-3-6-||-(0)-0-0-0-0-0-0-0-|-0-0-0-0-0-0-0-3-|-(3)-3-3-3-3-3-3-3-|-3-3-3-3-3-3-3-6-||-(0)-0-0-0-0-0-0-0-|-0-0-0-0-0-0-0-3-|-(3)-3-3-3-3-3-3-3-|-3-3-3-3-3-3-3-6-|
Ab5 N.C. Gtr I|-------------------|------------------||-------------------|------------------||-------------------|----------------7-||-(6)-6-6-6-6-6-6---|----------------x-||-(6)-6-6-6-6-6-6---|----------------5-||-(6)-6-6-6-6-6-6-0-|-6p0-6p0-5h6-0----|
|
| Gtr II|-------------------|------------------||-------------------|------------------||-------------------|---------------12-||-(6)-6-6-6-6-6-6---|----------------x-||-(6)-6-6-6-6-6-6---|---------------10-||-(6)-6-6-6-6-6-6-0-|-6p0-6p0-5h6-0----|
To Coda|-------------------------|---------------------------|||-------------------------|---------------------------|||--(7)--7---9--(9)--9--10-|-(10)-10--12-(12)-12-12-12-|||-------x---x-------x---x-|-------x---x-------x--x--x-|||--(5)--5---7--(7)--7---8-|--(8)--8--10-(10)-10-10-10-|||-------------------------|---------------------------||
|
|-------------------------|---------------------------|||-------------------------|---------------------------|||-(12)-12--14-(14)-14--10-|-(10)-10--12-(12)-12-12-12-|||-------x---x-------x---x-|-------x---x-------x--x--x-|||-(10)-10--12-(12)-12---8-|--(8)--8--10-(10)-10-10-10-|||-------------------------|---------------------------||
Verse N.C. D5 Gtrs I, II PM------------| PM----------|||--------------------------|----------------------|||o-------------------------|----------------------|||--------------------------|----------------------|||--------------------------|----------------------|||o-----------------0-0-0-0-|-0-0-0--0-0-0-0-0-0-0-|||--0-3-5-(5)s8-(8)-0-0-0-0-|-0-0-0--0-0-0-0-0-0-0-|
PM----------| PM------------| PM----||-------------------|-----------------------||-------------------|-----------------------||-------------------|-----------------------||-------------------|-----------------------||--0-0-0-0-0-0-0--0-|-0-0-0-0-0-0--0-0-0-0--||--0-0-0-0-0-0-0--0-|-0-0-0-0-0-0--0-0-0-0--|
1. N.C. Gtr I|-----------------------|------------------|||-----------------------|-----------------o|||-----------------------|------------------|||-----------------------|-3-2---/6-5-3-0---|||-------------------5-3-|-----3-----------o|||-0-3-5-(5)s8-(8)-0-----|------------------||
2. Gtrs I, II|-----------------------|-------------------||-----------------------|-------------------||-----------------------|-------------------||-----------------------|-3-2---/6-5-3-0----||-------------------5-3-|-----3-------------||-0-3-5-(5)s8-(8)-0-----|-------------------|
N.C. D5 PM PM PM PM PM|----------------------|-------------|-------------|-------------||----------------------|-------------|-------------|-------------||----------------------|-------------|-------------|-------------||-------------------0--|-0-----0--0--|----0--0-----|-0--0-----0--||-----------------0-0--|-0---0-0--0--|--0-0--0---0-|-0--0---0-0--||-0-3-5-(5)s8-(8)-0-0--|-0---0-0--0--|--0-0--0---0-|-0--0---0-0--|
N.C.|-----------------------|-----------------|||-----------------------|-----------------|||-----------------------|-----------------|||-----------------------|-3-2---/6-5-3-0--|||-------------------5-3-|-----3-----------|||-0-3-5-(5)s8-(8)-0-----|-----------------||
Pre-Chorus Bb5 Gtrs I, II||------------------------|----------------------|||o-----------------------|----------------------|||------------------------|----------------------|||---------10-(10)--------|---10-(10)------------|||o-8h10p8-----------8h10p|=8-----------8h10p8---|||------------------------|----------------------|
|
| Gtr III||------------------------|----------------------|||o-----------------------|----------------------|||------------------------|----------------------|||--8--8-8--8---8--8-8--8-|-8--8---8--8-8--8-8-8-|||o-8--8-8--8---8--8-8--8-|-8--8---8--8-8--8-8-8-|||--8--8-8--8---8--8-8--8-|-8--8---8--8-8--8-8-8-|
D5|---------------------|----------------------||---------------------|----------------------||---------------------|----------------------||-------10-(10)-------|---10-(10)------------||-7h8p7-----------7h8p|=7-----------7h8p7----||---------------------|----------------------|
|
|---------------------|----------------------||---------------------|----------------------||---------------------|----------------------||-0-0-0--0---0--0-0-0-|-0--0---0--0-0-0-0-0--||-0-0-0--0---0--0-0-0-|-0--0---0--0-0-0-0-0--||-0-0-0--0---0--0-0-0-|-0--0---0--0-0-0-0-0--|
C5|--------------------------|--------------------------||--------------------------|--------------------------||--------------------------|--------------------------||-----------7-(7)----------|-----7-(7)----------------||--5h=7p=5------------5h=7p|==5------------5h=7p=5----||--------------------------|--------------------------|
|
|--------------------------|--------------------------||--------------------------|--------------------------||--------------------------|--------------------------||-10-10-10-10-10--10-10-10-|-10-10-10--10-10-10-10-10-||-10-10-10-10-10--10-10-10-|-10-10-10--10-10-10-10-10-||-10-10-10-10-10--10-10-10-|-10-10-10--10-10-10-10-10-|
D.S. al Coda|--------------------------|---------------------------|||--------------------------|--------------------------o|||--------------------------|---------------------------|||-----------5-(5)----------|-----5-(5)--5--5--3--5-----|||--3h=5p=3------------3h=5p|==3-----------------------o|||--------------------------|---------------------------||
|
|--------------------------|---------------------------|||--------------------------|--------------------------o|||--------------------------|---------------------------|||-10-10-10-10-10--10-10-10-|-10-10-10--10-10-10-10-10--|||-10-10-10-10-10--10-10-10-|-10-10-10--10-10-10-10-10-o|||-10-10-10-10-10--10-10-10-|-10-10-10--10-10-10-10-10--||
Guitar Break & D5 Gtrs I, II|----------|------------|------------|--------||----------|------------|------------|--------||----------|------------|------------|--------||-0--------|-(0)--------|-(0)--------|-(0)----||-0--------|-(0)--------|-(0)--------|-(0)----||-0--------|-(0)--------|-(0)--------|-(0)----|
D5|------------|------------|------------|--------|||------------|------------|------------|--------|||------------|------------|------------|--------|||-(0)--------|-(0)--------|-(0)--------|-(0)----|||-(0)--------|-(0)--------|-(0)--------|-(0)----|||-(0)--------|-(0)--------|-(0)--------|-(0)----||
Interlude Slightly Faster Q=188 D5 Gtr I PM--| PM--------|||--------------------|-------------------|||o-------------------|-------------------|||--------------------|-------------------|||--------------------|-------------------|||o-0-0-0-----0-(0)-0-|-(0)---------------|||--0-0-0-----0-(0)-0-|-(0)---------------|
|
| Gtr II| PM-------------------------------------||--------------------|-------------------|||o-------------------|-------------------|||--------------------|-------------------|||--------------------|-------------------|||o-8-5-8-5-8-5--8--5-|--8--5-8-5-8-5-8-5-|||--------------------|-------------------|
PM------------||-----------------|--------------------||-----------------|--------------------||-----------------|--------------------||-----------------|--------------------||-----0-0---0---0-|-(0)----------------||-----0-0---0---0-|-(0)----------------|
|
|-----------------------------------||-----------------|--------------------||-----------------|--------------------||-----------------|--------------------||-----------------|--------------------||-7-3-7-3-7-3-7-3-|--7--3-7-3-7-3-7-3--||-----------------|--------------------|
D5 PM--| PM--------||----------------------|----------------------||----------------------|----------------------||----------------------|----------------------||----------------------|----------------------||--0-0--0------0-(0)-0-|-(0)------------------||--0-0--0------0-(0)-0-|-(0)------------------|
|
| PM------------------------------------------|----------------------|----------------------||----------------------|----------------------||----------------------|----------------------||----------------------|----------------------||-10-7-10-7-10-7-10--7-|-10--7-10-7-10-7-10-7-||----------------------|----------------------|
PM-------------||-------------------|--------------------|||-------------------|-------------------o|||-------------------|--------------------|||-------------------|--------------------|||------0-0---0----0-|-(0)---------------o|||------0-0---0----0-|-(0)----------------||
|
|-------------------------------------||-------------------|--------------------|||-------------------|-------------------o|||-------------------|--------------------|||-------------------|--------------------|||-10-7-9-6-9-6-10-6-|--9--6-9-6-9-6-9-6-o|||-------------------|--------------------||
Faster Q=192 N.C.||--10----10----------------|-------------------------|||o----10----10-10-11-10-11-|-13-10-13-10-10-11-10----|||--------------------------|----------------------10-|||--------------------------|-------------------------|||o-------------------------|-------------------------|||--------------------------|-------------------------|
|
| PM------------------------------------------------||--------------------------|-------------------------|||o-------------------------|-------------------------|||--------------------------|-------------------------|||--------------------------|-------------------------|||o--8--5--8--5--8--5--8--5-|--8--5--8--5--8--5--8--5-|||--------------------------|-------------------------|
|-10----10----------------|--------------------------||----10----10-10-11-10-11-|-13-10-13-10-10-11-10-----||-------------------------|----------------------10--||-------------------------|--------------------------||-------------------------|--------------------------||-------------------------|--------------------------|
|
|------------------------------------------------||-------------------------|--------------------------||-------------------------|--------------------------||-------------------------|--------------------------||-------------------------|--------------------------||--7--3--7--3--7--3--7--3-|--7--3--7--3--7--3--7--3--||-------------------------|--------------------------|
N.C.|-10----10----------------|-------------------------||----10----10-10-11-10-11-|-13-10-13-10-10-11-10----||-------------------------|----------------------10-||-------------------------|-------------------------||-------------------------|-------------------------||-------------------------|-------------------------|
|
| PM------------------------------------------------|-------------------------|-------------------------||-------------------------|-------------------------||-------------------------|-------------------------||-------------------------|-------------------------||-10--7-10--7-10--7-10--7-|-10--7-10--7-10--7-10--7-||-------------------------|-------------------------|
1.|-10----10----------------|--------------------------|||----10----10-10-11-10-11-|-13-10-13-10-10-11-10----o|||-------------------------|----------------------10--|||-------------------------|--------------------------|||-------------------------|-------------------------o|||-------------------------|--------------------------||
|
|------------------------------------------------||-------------------------|--------------------------|||-------------------------|-------------------------o|||-------------------------|--------------------------|||-------------------------|--------------------------|||-10--7--9--6--9--6--9--6-|--9--6--9--6--9--6--9--6-o|||-------------------------|--------------------------||
2. G5 D5 Gtr I Gtrs I, II \0.5________\1.5______||----------------|-------------------|||----------------|-------------------|||----------------|-------------------|||-5----(5)-------|-(5)-------(5)---0-|||-5----(5)-------|-(5)-------(5)---0-|||-5----(5)-------|-(5)-------(5)---0-||
Chorus D5 F5 Ab5 Gtrs I, II|-------------------|-----------------|-------------------|-----------------||-------------------|-----------------|-------------------|-----------------||-------------------|-----------------|-------------------|-----------------||-(0)-0-0-0-0-0-0-0-|-0-0-0-0-0-0-0-3-|-(3)-3-3-3-3-3-3-3-|-3-3-3-3-3-3-3-6-||-(0)-0-0-0-0-0-0-0-|-0-0-0-0-0-0-0-3-|-(3)-3-3-3-3-3-3-3-|-3-3-3-3-3-3-3-6-||-(0)-0-0-0-0-0-0-0-|-0-0-0-0-0-0-0-3-|-(3)-3-3-3-3-3-3-3-|-3-3-3-3-3-3-3-6-|
Ab5 N.C. Gtr I|-------------------|------------------||-------------------|------------------||-------------------|----------------7-||-(6)-6-6-6-6-6-6---|----------------x-||-(6)-6-6-6-6-6-6---|----------------5-||-(6)-6-6-6-6-6-6-0-|-6p0-6p0-5h6-0----|
|
| Gtr II|-------------------|------------------||-------------------|------------------||-------------------|---------------12-||-(6)-6-6-6-6-6-6---|----------------x-||-(6)-6-6-6-6-6-6---|---------------10-||-(6)-6-6-6-6-6-6-0-|-6p0-6p0-5h6-0----|
D5|-------------------------|------------------------||-------------------------|------------------------||--(7)--7--10-(10)-10---3-|--(3)--3---5--(5)--5----||-------x---x-------x---x-|-------x---x-------x--0-||--(5)--5---8--(8)--8---1-|--(1)--1---3--(3)--3--0-||-------------------------|----------------------0-|
|
|-------------------------|------------------------||-------------------------|------------------------||-(12)-12--14-(14)-14--15-|-(15)-15--17-(17)-17----||-------x---x-------x---x-|-------x---x-------x--0-||-(10)-10--12-(12)-12--13-|-(13)-13--15-(15)-15--0-||-------------------------|----------------------0-|
D5 F5 Ab5 Gtrs I, II|-------------------|-----------------|-------------------|-----------------||-------------------|-----------------|-------------------|-----------------||-------------------|-----------------|-------------------|-----------------||-(0)-0-0-0-0-0-0-0-|-0-0-0-0-0-0-0-3-|-(3)-3-3-3-3-3-3-3-|-3-3-3-3-3-3-3-6-||-(0)-0-0-0-0-0-0-0-|-0-0-0-0-0-0-0-3-|-(3)-3-3-3-3-3-3-3-|-3-3-3-3-3-3-3-6-||-(0)-0-0-0-0-0-0-0-|-0-0-0-0-0-0-0-3-|-(3)-3-3-3-3-3-3-3-|-3-3-3-3-3-3-3-6-|
Ab5 N.C. Gtr I|-------------------|------------------||-------------------|------------------||-------------------|----------------7-||-(6)-6-6-6-6-6-6---|----------------x-||-(6)-6-6-6-6-6-6---|----------------5-||-(6)-6-6-6-6-6-6-0-|-6p0-6p0-5h6-0----|
|
| Gtr II|-------------------|------------------||-------------------|------------------||-------------------|---------------12-||-(6)-6-6-6-6-6-6---|----------------x-||-(6)-6-6-6-6-6-6---|---------------10-||-(6)-6-6-6-6-6-6-0-|-6p0-6p0-5h6-0----|
|-------------------------|-------------------------||-------------------------|-------------------------||--(7)--7---9--(9)--9--10-|-(10)-10--12-(12)-12---7-||-------x---x-------x---x-|-------x---x-------x---x-||--(5)--5---7--(7)--7---8-|--(8)--8--10-(10)-10---5-||-------------------------|-------------------------|
|
|-------------------------|-------------------------||-------------------------|-------------------------||-(12)-12--14-(14)-14--10-|-(10)-10--12-(12)-12--12-||-------x---x-------x---x-|-------x---x-------x---x-||-(10)-10--12-(12)-12---8-|--(8)--8--10-(10)-10--10-||-------------------------|-------------------------|
N.C.|-------------------------|---------------------------|||-------------------------|---------------------------|||--(7)--7---9--(9)--9--10-|-(10)-10--12-(12)-12-12-12-|||-------x---x-------x---x-|-------x---x-------x--x--x-|||--(5)--5---7--(7)--7---8-|--(8)--8--10-(10)-10-10-10-|||-------------------------|---------------------------||
|
|-------------------------|---------------------------|||-------------------------|---------------------------|||-(12)-12--14-(14)-14--10-|-(10)-10--12-(12)-12-12-12-|||-------x---x-------x---x-|-------x---x-------x--x--x-|||-(10)-10--12-(12)-12---8-|--(8)--8--10-(10)-10-10-10-|||-------------------------|---------------------------||
Breakdown D5 Gtrs I, II PM--| PM--------| PM----------|||------------------|------------|-------------|----------|||o-----------------|------------|-------------|----------|||------------------|------------|-------------|----------|||------------------|------------|-------------|----------|||o-0-0-0---0-(0)-0-|-(0)--------|---0-0--0--0-|-(0)------|||--0-0-0---0-(0)-0-|-(0)--------|---0-0--0--0-|-(0)------|
1. D5 N.C. < PM------| PM--------| PM----------||---------------------|-------------|----------------|---------------|||---------------------|-------------|----------------|--------10----o|||---------------------|-------------|----------------|--------13-----|||---------------------|----------0--|-(0)------------|---------------|||-0-0-0-0-0---0-(0)-0-|-(0)------0--|-(0)--0-0--0--0-|-(0)----------o|||-0-0-0-0-0---0-(0)-0-|-(0)------0--|-(0)--0-0--0--0-|-(0)-----------||
2. D5 N.C. PM------| PM--------| PM----------||---------------------|------------|-------------|--------------||---------------------|------------|-------------|--------10----||---------------------|------------|-------------|--------13----||---------------------|------------|-------------|--------------||-0-0-0-0-0---0-(0)-0-|-(0)--------|---0-0--0--0-|-(0)----------||-0-0-0-0-0---0-(0)-0-|-(0)--------|---0-0--0--0-|-(0)----------|
D5 PM--| PM--------||-----------------|----------|||-----------------|----------|||-----------------|----------|||-----------------|----------|||-0-0-0---0-(0)-0-|-(0)------|||-0-0-0---0-(0)-0-|-(0)------||
Outro D5 Gtr I PM---| PM---------||--------------------------|--------------------------||--------------------------|--------------------------||--------------------------|--------------------------||--------------------------|--------------------------||--0--0--0--------0-(0)--0-|-(0)----------------------||--0--0--0--------0-(0)--0-|-(0)----------------------|
|
| Gtr II|-10-------10-------10-----|-----10-------10-------10-||----14-14----14-14-----14-|-14-----14-14----14-14----||--------------------------|--------------------------||--------------------------|--------------------------||--------------------------|--------------------------||--------------------------|--------------------------|
PM-----------------||-------------------------|-----------------------------||-------------------------|-----------------------------||-------------------------|-----------------------------||-------------------------|-----------------------------||--------0--0-----0-----0-|-(0)-------------------------||--------0--0-----0-----0-|-(0)-------------------------|
|
|-------10-------10-------|-10--------10-------10-(10)S=||-14-14----14-14----14-14-|-----14-14----14-14----------||-------------------------|-----------------------------||-------------------------|-----------------------------||-------------------------|-----------------------------||-------------------------|-----------------------------|
D5 PM-------| PM---------||------------------------------|--------------------------||------------------------------|--------------------------||------------------------------|--------------------------||------------------------------|--------------------------||--0-0--0-0--0--------0-(0)--0-|-(0)----------------------||--0-0--0-0--0--------0-(0)--0-|-(0)----------------------|
|
|-12-----------12-------12-----|-----12-------12-------12-||------16---16----16-16-----16-|-16-----16-16----16-16----||------------------------------|--------------------------||------------------------------|--------------------------||------------------------------|--------------------------||------------------------------|--------------------------|
N.C. PM-----------------||-------------------------|-------------------------------||-------------------------|--------------10---------------||-------------------------|--------------13---------------||-------------------------|-------------------------------||--------0--0-----0-----0-|-(0)---------------------------||--------0--0-----0-----0-|-(0)---------------------------|
|
|-------12-------12-------|-12--------12-------12-(12)S===||-16-16----16-16----16-16-|-----16-16----16-16------------||-------------------------|-------------------------------||-------------------------|-------------------------------||-------------------------|-------------------------------||-------------------------|-------------------------------|
D5 PM---| PM---------||--------------------------|--------------------------||--------------------------|--------------------------||--------------------------|--------------------------||--------------------------|--------------------------||--0--0--0--------0-(0)--0-|-(0)----------------------||--0--0--0--------0-(0)--0-|-(0)----------------------|
|
|-14-------14-------14-----|-----14-------14-------14-||----18-18----18-18-----18-|-18-----18-18----18-18----||--------------------------|--------------------------||--------------------------|--------------------------||--------------------------|--------------------------||--------------------------|--------------------------|
PM-----------------||-------------------------|--------------------------||-------------------------|--------------------------||-------------------------|--------------------------||-------------------------|--------------------------||--------0--0-----0-----0-|-(0)----------------------||--------0--0-----0-----0-|-(0)----------------------|
|
|-------14-------14-------|-14--------14-------14----||-18-18----18-18----18-18-|-----18-18----18-18----18-||-------------------------|--------------------------||-------------------------|--------------------------||-------------------------|--------------------------||-------------------------|--------------------------|
D5 PM-------| PM---------||------------------------------|--------------------------||------------------------------|--------------------------||------------------------------|--------------------------||------------------------------|--------------------------||--0-0--0-0--0--------0-(0)--0-|-(0)----------------------||--0-0--0-0--0--------0-(0)--0-|-(0)----------------------|
|
|-15-----------15-------15-----|-----15-------15-------15-||------19---19----19-19-----19-|-19-----19-19----19-19----||------------------------------|--------------------------||------------------------------|--------------------------||------------------------------|--------------------------||------------------------------|--------------------------|
N.C. PM-----------------||-------------------------|--------------------------||-------------------------|--------------10----------||-------------------------|--------------13----------||-------------------------|--------------------------||--------0--0-----0-----0-|-(0)----------------------||--------0--0-----0-----0-|-(0)----------------------|
|
|-------15-------15-------|-15--------15-------15----||-19-19----19-19----19-19-|-----19-19----19-19-------||-------------------------|--------------------------||-------------------------|--------------------------||-------------------------|--------------------------||-------------------------|--------------------------|
D5 N.C. Gtr I PM--| PM--------||-----------------|----------------|-------------|-------------||-----------------|--------(10)----|-----(10)----|-----(10)----||-----------------|--------(13)----|-----(13)----|-----(13)----||-----------------|----------------|-------------|-------------||-0-0-0---0-(0)-0-|-(0)------------|-------------|-------------||-0-0-0---0-(0)-0-|-(0)------------|-------------|-------------|
N.C. Gtr II <|-16----16----16----16----|-16----16----16----16----||----20----20----20----20-|----20----20----20----20-||-------------------------|-------------------------||-------------------------|-------------------------||-------------------------|-------------------------||-------------------------|-------------------------|
|-16----16----16----16----|-----*||----20----20----20----20-|-----*||-------------------------|-----*||-------------------------|-----*||-------------------------|-----*||-------------------------|-----*|
Tap to rate this tab
 
# A B C D E F G H I J K L M N O P Q R S T U V W X Y Z