Attack Attack - Say It To Me tab version 1

----------------------------------------------|--8-------7------8-----7------8------7--------|--9x16----9x16---9x16--9x16---9x16---9x16-----|----------------------------------------------|----------------------------------------------|----------------------------------------------|
------------------7-5-7-5---------------------|8 8 8 7 7 7------5---5---5--x2----------------|-----------7----------------------------------|----------------------------------------------|----------------------------------------------|----------------------------------------------|
----------------------------------------------|--8-----10-----12----7----10---7--------------|--9x8---9-x4---9-x4--7x8--9-x4-7x4------------|----------------------------------------------|----------------------------------------------|----------------------------------------------|
-------------------7-5-7-5----------3-5---3-5-5---|8 8 8 7 7 7-------5---5---5--x2----4-4---4-4------|-----------7--------------------------------------|--------------------------------------------------|--------------------------------------------------|--------------------------------------------------|
--------------------------------------------------|-------------------------12-10--------------------|-9-9-9-9---12-12--14-12--x--x---------------------|-x-x-x-x---x--x---x--x---x--x---------------------|-7-7-7-7---10-10--12-10--10-10--------------------|--------------------------------------------------|
--------------------------------------------------|-----------------------------13--12---------------|-12-12-12-12---14-14--16-14--x---x----------------|-x--x--x--x----x--x---x--x---x---x----------------|-10-10-10-10---12-12--14-12--10--10---------------|--------------------------------------------------|
--------------------------------------------------|-------------------------12-10--------------------|-9-9-9-9---12-12--14-12--x--x---------------------|-x-x-x-x---x--x---x--x---x--x---------------------|-7-7-7-7---10-10--12-10--10-10--------------------|--------------------------------------------------|
--------------------------------------------------|-----------------------------13--12---------------|-12-12-12-12---14-14--16-14--x---x----------------|-x--x--x--x----x--x---x--x---x---x----------------|-10-10-10-10---12-12--14-12--10--10---------------|--------------------------------------------------|
--------------------------------------------------|-------------------------12-10--------------------|-9-9-9-9---12-12--14-12--x--x---------------------|-x-x-x-x---x--x---x--x---x--x---------------------|-7-7-7-7---10-10--12-10--10-10--------------------|--------------------------------------------------|
--------------------------------------------------|-----------------------------13--12---------------|-12-12-12-12---14-14--16-14--x---x----------------|-x--x--x--x----x--x---x--x---x---x----------------|-10-10-10-10---12-12--14-12--10--10---------------|--------------------------------------------------|
--------------------------------------------------|-------------------------12-10--------------------|-9-9-9-9---12-12--14-12--x--x---------------------|-x-x-x-x---x--x---x--x---x--x---------------------|-7-7-7-7---10-10--12-10--10-10--------------------|--------------------------------------------------|
--------------------------------------------------|-----------------------------13--12---------------|-12-12-12-12---14-14--16-14--x---x----------------|-x--x--x--x----x--x---x--x---x---x----------------|-10-10-10-10---12-12--14-12--10--10---------------|--------------------------------------------------|
----------------|--8-------7-----|--9x16----9x16--|----------------|----------------|----------------|
------------------7-5-7-5---------------------|8 8 8 7 7 7------5---5---5--x2----------------|-----------7----------------------------------|----------------------------------------------|----------------------------------------------|----------------------------------------------|
----------------------------------------------|--8-----10-----12----7----10---7--------------|--9x8---9-x4---9-x4--7x8--9-x4-7x4------------|----------------------------------------------|----------------------------------------------|----------------------------------------------|
-------------------7-5-7-5------|8 8 8 7 7 7-------5---5---5--x2-|-----------7--------------------|--------------------------------|--------------------------------|--------------------------------|
havent worked out the solo bit yet but carrying on...
--------------------------------------------------|-------------------------12-10--------------------|-9-9-9-9---12-12--14-12--x--x---------------------|-x-x-x-x---x--x---x--x---x--x---------------------|-7-7-7-7---10-10--12-10--10-10--------------------|--------------------------------------------------|
--------------------------------------------------|-----------------------------13--12---------------|-12-12-12-12---14-14--16-14--x---x----------------|-x--x--x--x----x--x---x--x---x---x----------------|-10-10-10-10---12-12--14-12--10--10---------------|--------------------------------------------------|
--------------------------------------------------|-------------------------12-10--------------------|-9-9-9-9---12-12--14-12--x--x---------------------|-x-x-x-x---x--x---x--x---x--x---------------------|-7-7-7-7---10-10--12-10--10-10--------------------|--------------------------------------------------|
--------------------------------------------------|-----------------------------13--12---------------|-12-12-12-12---14-14--16-14--x---x----------------|-x--x--x--x----x--x---x--x---x---x----------------|-10-10-10-10---12-12--14-12--10--10---------------|--------------------------------------------------|
--------------------------------------------------|-------------------------12-10--------------------|-9-9-9-9---12-12--14-12--x--x---------------------|-x-x-x-x---x--x---x--x---x--x---------------------|-7-7-7-7---10-10--12-10--10-10--------------------|--------------------------------------------------|
--------------------------------------------------|-----------------------------13--12---------------|-12-12-12-12---14-14--16-14--x---x----------------|-x--x--x--x----x--x---x--x---x---x----------------|-10-10-10-10---12-12--14-12--10--10---------------|--------------------------------------------------|
--------------------------------------------------|-------------------------12-10--------------------|-9-9-9-9---12-12--14-12--x--x---------------------|-x-x-x-x---x--x---x--x---x--x---------------------|-7-7-7-7---10-10--12-10--10-10--------------------|--------------------------------------------------|
--------------------------------------------------|-----------------------------13--12---------------|-12-12-12-12---14-14--16-14--x---x----------------|-x--x--x--x----x--x---x--x---x---x----------------|-10-10-10-10---12-12--14-12--10--10---------------|--------------------------------------------------|
----------------|--8-------7-----|--9x16----9x16--|----------------|----------------|----------------|
------------------7-5-7-5---------------------|8 8 8 7 7 7------5---5---5--x2----------------|-----------7----------------------------------|----------------------------------------------|----------------------------------------------|----------------------------------------------|
----------------------------------------------|--8-----10-----12----7----10---7--------------|--9x8---9-x4---9-x4--7x8--9-x4-7x4------------|----------------------------------------------|----------------------------------------------|----------------------------------------------|
-------------------7-5-7-5------|8 8 8 7 7 7-------5---5---5--x2-|-----------7--------------------|--------------------------------|--------------------------------|--------------------------------|
--------------------------------|-8-8-8-8-7-7-8-7----------------| Repeat this for as long as needed then as--9-9-9-9-9-9-9-9---------------| as thats playing this is also playing--------------------------------| at the same time.--------------------------------|--------------------------------|
Repeat this for as long as needed then as thats playing this is also playing at the same
-------------------------------- -----------------|-------------------------------- -----------------|-------------------------------- -----------------|-------------5---5---7---------- -----------------|-2---5---5---3x8-2x4-5x4--------play as much needed then:-2-2-2--2222-----|-0x8-2x4-3x4-------------------- -x-x-x--xxxx-----|
----------------|--8-------7-----|--9x16----9x16--|----------------|----------------|----------------|
------------------7-5-7-5---------------------|8 8 8 7 7 7------5---5---5--x2----------------|-----------7----------------------------------|----------------------------------------------|----------------------------------------------|----------------------------------------------|
----------------------------------------------|--8-----10-----12----7----10---7--------------|--9x8---9-x4---9-x4--7x8--9-x4-7x4------------|----------------------------------------------|----------------------------------------------|----------------------------------------------|
-------------------7-5-7-5------|8 8 8 7 7 7-------5---5---5--x2-|-----------7--------------------|--------------------------------|--------------------------------|--------------------------------|
---------------------------------------------|---------------------------------------------|---------------------------------------------|---------------------------------------------|-2-2-2--2-2-2--2-2-2----2-2-2--2222----------|-x-x-x--x-x-x--x-x-x-x3-x-x-x--xxxx----------|
whilst thats playing at the end this is also playing:
-151515151515151515---------| play until end.-151515151515151515---------|----------------------------|----------------------------|----------------------------|----------------------------|
Tap to rate this tab
 
# A B C D E F G H I J K L M N O P Q R S T U V W X Y Z