Attack In Black - Come Way tab

Song: Come What May
Artist: Attack In Black
Album: Marriage
Tabbed By: Wade Ouellet
Tuning: D A D G B E

Verse

|------------------------||------------------------||-7-97-9--------7-97-9---||-7-77-7--------7-77-7---||-7-77-7--------7-77-7---||-7-77-7--------7-77-7---|
|--------------------------||--------------------------||--------------------------||--------------------------||--------------------------||-5559999999999999999777---|
|------------------------||------------------------||-7-97-9--------7-97-9---| x2|-7-77-7--------7-77-7---||-7-77-7--------7-77-7---||-7-77-7--------7-77-7---|
Pre-Chorus
|-----------||-----------||-----------||-5----0----||-5----0----||-5----0----|
Verse 2
|------------------------||------------------------||-7-97-9--------7-97-9---||-7-77-7--------7-77-7---||-7-77-7--------7-77-7---||-7-77-7--------7-77-7---|
|----------------------------------------------||----------------------------------------------||----------------------------------------------||----------------------------------------------||---------------------------5555555555555555---||-5559999999999999999999-777-------------------|
|------------------------||------------------------||-7-97-9--------7-97-9---||-7-77-7--------7-77-7---||-7-77-7--------7-77-7---||-7-77-7--------7-77-7---|
|----------------------------------------------||----------------------------------------------||----------------------------------------------||----------------------------------------------||---------------------------5555555555555555---||-5559999999999999999999-777-------------------|
Pre-Chorus 2
|------------------------||--------------------5---||--------------6-4-6-----||-5----0----0------------||-5----0----0------------||-5----0----0------------|
|------------------------||--------------------7---||--------------6-4-6-----||-5----0----0------------||-5----0----0------------||-5----0----0------------|
|-----------------------------||-----------------------------||---------------777-----999---||-5----0----0-0-000-0-0-000---||-5----0----0-0-000-0-0-000---||-5----0----0-0-000-0-0-000---|
|-----------------------------||-----------------------------||-----------------------------| x3|-5----0----00-0000-000-005---||-5----0----00-0000-000-005---||-5----0----00-0000-000-005---|
Chorus
|-----------------------------------------------------------------------||-----------------------------------------------------------------------||----------------------------------------------------7-79-911-119-97----||-7777777777777777-5555555555555555-0000000077777777-x-xx-xx--x-x-xx5---||-7777777777777777-5555555555555555-0000000077777777-5-57-79--9-7-755---||-7777777777777777-5555555555555555-0000000077777777-0000000--0-0-005---|
|--------------------------------------------------------||--------------------------------------------------------||--------------------------------------------------------||-7777777777777777-5555555555555555-0-------7--------0---||-7777777777777777-5555555555555555-0-------7--------0---||-7777777777777777-5555555555555555-0-------7--------0---|
Verse 3
|------------------------||------------------------||-7-97-9--------7-97-9---||-7-77-7--------7-77-7---||-7-77-7--------7-77-7---||-7-77-7--------7-77-7---|
|----------------------------------------------||----------------------------------------------||----------------------------------------------||----------------------------------------------||---------------------------5555555555555555---||-5559999999999999999999-777-------------------|
|------------------------||------------------------||-7-97-9--------7-97-9---||-7-77-7--------7-77-7---||-7-77-7--------7-77-7---||-7-77-7--------7-77-7---|
|----------------------------------------------||----------------------------------------------||----------------------------------------------||----------------------------------------------||---------------------------5555555555555555---||-5559999999999999999999-777-------------------|
Pre-Chorus 3
|------------------------------||------------------------------||------------------------------||-5----0----0000000000000000---||-5----0----0000000000000000---||-5----0----0000000000000000---|
Bridge
|--------------------------------------||--------------------------------------||--------------------------------------| x2|-0000000000000000-7777777777777777----||-0000000000000000-7777777777777777----||-0000000000000000-7777777777777777----|
|--------------------------------------||--------------------------------------||--------------------------------------||-5555555555555555-0000000000000000----||-5555555555555555-0000000000000000----||-5555555555555555-0000000000000000----|
|-----------------------------||-----------------------------||-----------------------------||-5----0----00-0000-000-006---||-5----0----00-0000-000-006---||-5----0----00-0000-000-006---|
Chorus 2
|-----------------------------------------------------------------------||-----------------------------------------------------------------------||----------------------------------------------------7-79-911-119-97----||-7777777777777777-5555555555555555-0000000077777777-x-xx-xx--x-x-xx5---||-7777777777777777-5555555555555555-0000000077777777-5-57-79--9-7-755---||-7777777777777777-5555555555555555-0000000077777777-0000000--0-0-005---|
|--------------------------------------------------------||--------------------------------------------------------||--------------------------------------------------------||-7777777777777777-5555555555555555-0-------7--------0---||-7777777777777777-5555555555555555-0-------7--------0---||-7777777777777777-5555555555555555-0-------7--------0---|
Tap to rate this tab
 
# A B C D E F G H I J K L M N O P Q R S T U V W X Y Z