Attack In Black - Love Between You And I tab

Song: The Love Between You And I
Artist: Attack In Black
Album: Widows E.P.
Tabbed By: Wade Ouellet
Tuning: D A D G B E

Intro

|-----------------------------------------------------||-----------------------------------------------------||-6---------------------6---6x6------------------9----||-4--------999-7--------4---4x4--4444-999-7-----7-7---||-4--------999-7--------4--------4444-999-7---77------||-4--------999-7--------4--------4444-999-7---77------|
|--------------------------------------------------------------------||--------------------------------------------------------------------||---------------------------------9----------------------------------||-44444444-4442222-999-77777777777-7-44444444-4442222-111111-9-9-7---||-44444444-4442222-999-7777777777----44444444-4442222-111111-9-9-7---||-44444444-4442222-999-7777777777----44444444-4442222-111111-9-9-7---|
Verse
|-----------------------------||-77--77--77--77--------------||---66--66--66--44-111111-9---| x2|-----------------------------||-----------------------------||-----------------------------|
|----------------------------------------||-77777777-777710p95h7121212-10----------||-66666666-6666-------111111-9-----------||----------------------------------777---||----------------------------------777---||----------------------------------777---|
Pre-Chorus
|-----------------------||-----------------------||-4----6----444-6-4-2---||-2----4----222-4-2-0---||-2----4----222-4-2-0---||-2----4----222-4-2-0---|
Verse 2
|------------------------------||-77--77--77--77---12-----10---||-6-66--66--66--44-111111-9----| x2|------------------------------||------------------------------||------------------------------|
|-------------------------------------||-77777777-777710p9-5h7---------------||-66666666-6666-----------------------||----------------------99x-7----777---||----------------------99x-7----777---||----------------------99x-7----777---|
Pre-Chorus 2
|------------------------------------||------------------------------------||-4----6----4----22222222-22222222---||-2----4----2----00000000-00000000---||-2----4----2----00000000-00000000---||-2----4----2----00000000-00000000---|
Chorus
|---------------------------------------||---------------------------------------||-44444444-22222222-66666666-222-9-99---| x2|-22222222-00000000-44444444-000-7-77---||-22222222-00000000-44444444-000-7-77---||-22222222-00000000-44444444-000-7-77---|
Post-Chorus
|-------------------------------------------------------------||---------------5---------5-----------------------------------||-4----p0-----------------------------------------------------||-2----p0------4--4-----4---777-2----4----00000000-00000000---||-2----p0-------------4-----777-2----4----00000000-00000000---||-2----p0----4------4-------777-2----4----00000000-00000000---|
Interlude
|--------------------------------------------------------------------||--------------------------------------------------------------------||---------------------------------9----------------------------------||-44444444-4442222-999-77777777777-7-44444444-4442222-111111-9-9-7---||-44444444-4442222-999-7777777777----44444444-4442222-111111-9-9-7---||-44444444-4442222-999-7777777777----44444444-4442222-111111-9-9-7---|
Verse 3
|------------------------------||-77--77--77--77---12-----10---||-6-66--66--66--44-11-----9----||------------------9------7----||------------------9------7----||------------------9------7----|
|--------------------------||--------------------------||---------------111111-9---||-4444-4-4--444-9-9-9--7---||-4444-4-4--444-9-9-9--7---||-4444-4-4--444-9-9-9--7---|
|-------------------------------------||-77777777-777710p9-5h7---------------||-66666666-6666-----------------------||----------------------99x-7----777---||----------------------99x-7----777---||----------------------99x-7----777---|
Pre-Chorus 2
|------------------------------------||------------------------------------||-4----6----4----22222222-22222222---||-2----4----2----00000000-00000000---||-2----4----2----00000000-00000000---||-2----4----2----00000000-00000000---|
Chorus 2
|---------------------------------------||---------------------------------------||-44444444-22222222-66666666-222-9-99---| x2|-22222222-00000000-44444444-000-7-77---||-22222222-00000000-44444444-000-7-77---||-22222222-00000000-44444444-000-7-77---|
Post-Chorus 2
|-------------------------------------------------------------||---------------5---------5-----------------------------------||-4----p0-----------------------------------------------------||-2----p0------4--4-----4---777-2----4----00000000-00000000---||-2----p0-------------4-----777-2----4----00000000-00000000---||-2----p0----4------4-------777-2----4----00000000-00000000---|
Bridge
|-----------------------------------------------------||-10p9-5h7-5h7------------10p9-5h7-5h7-7-/10-12-/14---||---------------4-/6-2--------------------------------| x2|-----------------------------------------------------||-----------------------------------------------------||-----------------------------------------------------|
Outro
|-----------------------------------9--------||-17--------5------5------5-----/10----------||-16----------4------4------4---/9-----------||--------------------------------------777---||--------------------------------------777---||--------------------------------------777---|
|--------------------------------------------------------------------------------||----------------------------------------------------5-----5-----7-10-----7-10---||------------------------------------------------------4-----4-6------9-6--------||-22222222-00000000-44444444-44444-777-2----4----0-------------------------------||-22222222-00000000-44444444-44444-777-2----4----0-------------------------------||-22222222-00000000-44444444-44444-777-2----4----0-------------------------------|..................................
Tap to rate this tab
 
# A B C D E F G H I J K L M N O P Q R S T U V W X Y Z