Attracted To Miss – Stuck In Between Right And Wrong tab

----------------------------------------------------------------------------
            Attracted to Miss - Stuck in between right and wrong
----------------------------------------------------------------------------
link: http://www.pumpkineaterrecords.com/bands/atm/main.php
Tabbed By MaxPoWeR (ericgirouard1985@hotmail.com)

Notation
~   -Let Ring Out
..  -Palm Mute

Guitar 1

Intro

|---------------------------------||---------------------------------||-------10------------------------||--7----10----10----10---9----7---||--7----8-----10----10---9----7---||--5----------8-----8----7----5---|
|---------------------------------||---------------------------------||-------10----12------------------||--7----10----12----10---9----7---||--7----8-----10----10---9----7---||--5----------------8----7----5---|
Verse 1 (x2)
|---------------------------------||---------------------------------||-------10------------------------||--7----10----10----10---9----7---||--7----8-----10----10---9----7---||--5----------8-----8----7----5---|
|-----------------|---1st time-----|--2nd--||-----------------|----------------|-------||-------10----12--|----------------|---12--||--7----10----12--|--10---9----7---|---12--||--7----8-----10--|--10---9----7---|---10--||--5--------------|--8----7----5---|-------|
Verse 2 (x2)
|------------------||------------------||------------------||--3---5---7---2---||--3---5---7---2---||--1---3---5---0---|
Pre-Chorus
|---------||---------||---------||--3---5--||--3---5--||--1---3--|
Chorus
|------------------------------------------||------------------------------------------||--------------5---------------5-----------||--7---2---3---5---7---2---3---5---555555--||--7---2---3---3---7---2---3---3---555555--||--5---0---1-------5---0---1-------333333--|
Verse 1 Verse 2 Chorus Bridge (x4)
|------||------||------||--7~--||--7~--||--5~--|
Bridge Cont'd (x4)
|----------------------||----------------------||----------------------||--777--222--33333333--||--777--222--33333333--||--555--000--11111111--|PM ... ... ........
Bridge Cont'd (x4)
|-----------------------||-----------------------||-----------------------||--333--222--333333330--||--333--222--333333330--||--111--000--111111110--|
Verse 2 (x2) Outro
|---------||---------||---------||--3---5--||--3---5--||--1---3--|
Outro Cont'd (x4)
|-----------------||-----------------||--------------5--||--7---2---3---5--||--7---2---3---3--||--5---0---1------|
Ending
|-----------------------------||-----------------------------||--------------5--------------||--7---2---3---5---555555-45--||--7---2---3---3---555555-45--||--5---0---1-------333333-67--|
Done! listen the song for the strumming.
Please rate this tab:
x1.0