Rejoice tab with lyrics by Audio Adrenaline - Easy chords and tabs for guitar

Audio Adrenaline – Rejoice tab

REJOICE
Audio Adrenaline
From the 2001 Album LIFT


CHORDS
	g	F	C	Bb	G
e: 	x	x	8	6	3
B:	12	10	8	6	3
G:	12	10	9	7	4
D:	12	10	10	8	5
A:	10	8	10	8	5
E:	x	x	8	6	3
 

INTRO Gtr I (Main Riff 1a) G F C Bb G 2x||---------------------------------|---------------------3-----||||o-------12\-10-------------------|---------------------3----o||||----------------------9----9-----|--9------7-----4-----4-----||||--12-----------------------------|-10------8-----5-----------||||o-10-----------------------------|-10------8-----5----------o||||--------------------8----8-------|--8------6-----3---3-------||
|
| Gtr II (Main Riff 2) 2x||---------------------------------|---------------------------||||o--------------------------------|--------------------------o||||---------------------------------|---------------------------||||--12-12--x--10-------------------|---------------------------||||o-10-10--x---8-x-x-10---10-8-10--|-10-10-x-8-x-x-5--10-8-10-o||||---------------x-x--8------------|--8--8-x-6-x-x-3-----------||
(Main Riff 1b) 2x||----------------------------------|---------------------3-----||||o----------12\-10-----------------|---------------------3----o||||--------12-------------9----9-(9)-|--9------7-----4-----4-----||||--12------------------------------|-10------8-----5-----------||||o-10------------------------------|-10------8-----5----------o||||---------------------8----8-------|--8------6-----3-----------||
|
| (Main Riff 2) 2x||----------------------------------|---------------------------||||o---------------------------------|--------------------------o||||----------------------------------|---------------------------||||--12-12--x-10---------------------|---------------------------||||o-10-10--x--8---x-x-10---10-8-10--|-10-10-x-8-x-x-5--10-8-10-o||||----------------x-x--8------------|--8--8-x-6-x-x-3-----------||
VERSE Gtr 1 (Verse Riff 1) C C Bb G C Bb G|-----------|-------------|----------------|----------------||-----------|-------------|----------------|----------------||-----------|-------------|--9-7--4--------|--9-7--4--------||-10--------|-(10)--------|-10-8--5--------|-10-8--5--------||-10--------|-(10)--------|-10-8--5--------|-10-8--5--------||--8--------|--(8)--------|--8-6--3--------|--8-6--3--------|
|
| Gtr III (Verse Riff 3a) ~~~ ~~~|-----------|-------------|-------------3--|-------------3--||-----------|-------------|----------------|----------------||-----------|-------------|--------/4------|--------/4------||-----------|-------------|----------------|----------------||-----------|-------------|----------------|----------------||-----------|-------------|----------------|----------------|
(Verse Riff 1)|-----------|-------------|-----------------|-----------------||-----------|-------------|-----------------|-----------------||-----------|-------------|--9-7--4---------|--9-7--4---------||-10--------|-(10)--------|-10-8--5---------|-10-8--5---------||-10--------|-(10)--------|-10-8--5---------|-10-8--5---------||--8--------|--(8)--------|--8-6--3---------|--8-6--3---------|
|
| (Verse Riff 3b) ~~~ ~~~|-----------|-------------|--------------3--|--------------3--||-----------|-------------|------------3----|------------3----||-----------|-------------|--------/4-------|--------/4-------||-----------|-------------|-----------------|-----------------||-----------|-------------|-----------------|-----------------||-----------|-------------|-----------------|-----------------|
CHORUS Gtr 1: Main Riff 1a x2 Gtr 2: Main Riff 2 x2 Gtr 1: Main Riff 1b x2 Gtr 2: Main Riff 2 x2 VERSE 2 Gtr 1: Verse Riff 1 Gtr 3: Verse Riff 3a
Gtr 1 (Verse Riff 1) |-----------|---------------------|----------------|------------------||-----------|---------------------|----------------|------------------||-----------|---------------------|--9-7-4-(4)-----|--9-7-4-(4)-------||-10--------|-(10)----------------|-10-8-5-(5)-----|-10-8-5-(5)-------||-10--------|-(10)----------------|-10-8-5-(5)-----|-10-8-5-(5)-------||--8--------|--(8)----------------|--8-6-3-(3)-----|--8-6-3-(3)-------|
|
| Gtr 3 (Verse Riff 3c)| 1/4 ~~~ ~~~~~ ~~~|-----------|-------6b-----3------|--3-------------|--------------3---||-----------|---------------------|----------------|------------3-----||-----------|-----------------/4--|----------------|--------/4--------||-----------|---------------------|----------------|------------------||-----------|---------------------|----------------|------------------||-----------|---------------------|----------------|------------------|
CHORUS Gtr 1: Main Riff 1b x6 Gtr 2: Main Riff 2 x6
BRIDGE Gtrs I, II (Bridge Riff 1a)|-------------------------|---------------------||-x-x---------x-x---------|-x-x-----------------||-x-x-----3---x-x-----3---|-x-x-----3---3---3---||-x-x-3h5---5-x-x-3h5---5-|-x-x-3h5---5---5---5-||-------------------------|---------------------||-------------------------|---------------------|
(Bridge Riff 1b)|-------------------------|---------------------||-x-x---------x-x---------|---------------------||-x-x-----3---x-x-----3---|-3-3---0-3---3---3---||-x-x-3h5---5-x-x-3h5---5-|-----------5---5---5-||-------------------------|---------------------||-------------------------|---------------------|
(Bridge Riff 1a)|-------------------------|---------------------||-x-x---------x-x---------|-x-x-----------------||-x-x-----3---x-x-----3---|-x-x-----3---3---3---||-x-x-3h5---5-x-x-3h5---5-|-x-x-3h5---5---5---5-||-------------------------|---------------------||-------------------------|---------------------|
G|----------|------------------||----------|--------------x-x-||----------|--------------x-x-||-5--------|-(5)----------x-x-||-5--------|-(5)--------------||-3--------|-(3)--------------|
CHORUS Gtr 1: Main Riff 1a x3 Gtr 2: Main Riff 2 x3
Gtr I (Main Riff 1a)|---------------------------------|-----------------------3----||-------12\----10-----------------|-----------------------3----||----------------------9----9-(9)-|--9------7-----4-------4----||---------------------------------|-10------8-----5------------||-10------------------------------|-10------8-----5------------||--------------------8----8-------|--8------6-----3------------|
|
| Gtr II (Main Riff 2)|---------------------------------|----------------------------||---------------------------------|----------------------------||-12-12--x--10--------------------|----------------------------||-12-12--x--10--x-x-10------------|-10-10-x-8-x-x-5------------||-10-10--x---8--x-x-10---10-8-10--|-10-10-x-8-x-x-5----10-8-10-||---------------x-x--8------------|--8--8-x-6-x-x-3------------|
|
| Gtr III ~~~~~|---------------------------------|-----------------------3----||---------------------------------|----------------------------||---------------------------------|-----------------/4---------||---------------------------------|----------------------------||---------------------------------|----------------------------||---------------------------------|----------------------------|
INTERLUDE Gtr III ~~~|---------|---------3--|---------|-------------------||---------|------------|---------|-------------------||---------|-----/4-----|---------|-5-3---------------||---------|------------|---------|-----3h5-3h5--3-5--||---------|------------|---------|-------------------||---------|------------|---------|-------------------|
CHORUS Gtr 1: Main Riff 1b x8 Gtr 2: Main Riff 2 x8 BRIDGE 2 Gtrs I and II: Bridge Riff 1a 3x
Gtrs I and II (Bridge Riff 1a) |-------------------------|----------------------||-x-x---------x-x---------|-x-x------------------||-x-x-----3---x-x-----3---|-x-x-----3---3----3---||-x-x-3h5---5-x-x-3h5---5-|-x-x-3h5---5---5----5-||-------------------------|----------------------||-------------------------|----------------------|
|
| Gtr III |-------------------------|----------------------||-------------------------|----------------------||-------------------------|-----------------/4---||-------------------------|----------------------||-------------------------|----------------------||-------------------------|----------------------|
G|----------|------------|------------|--------||----------|------------|------------|--------||----------|------------|------------|--------||----------|------------|------------|--------||-5--------|-(5)--------|-(5)--------|-(5)----||-3--------|-(3)--------|-(3)--------|-(3)----|
|
|-3--------|------------|------------|--------||----------|------------|------------|--------||----------|------------|------------|--------||----------|------------|------------|--------||----------|------------|------------|--------||----------|------------|------------|--------|
OUTRO Gtr I|------------------|-------------------------|--------------------||------------------|-------------------------|--------------------||------------------|-------------------------|--------------------||----------x-x-3-5-|-x-x--x-x---x-x---3----5-|-x-x--x-x--x-x--3-5-||------------------|-------------------------|--------------------||------------------|-------------------------|--------------------|
|
| Gtr II 1/4 1/4 |------------------|----------6b----3--------|--------------------||------------------|------------------6p3----|--------------------||------------------|-----------------------5-|-3b-----------------||------------------|-------------------------|------5-------------||------------------|-------------------------|--------------------||------------------|-------------------------|--------------------|
|
| Gtr III|------------------|-------------------------|--------------------||-----6------------|-------------------------|-6------------------||--/7----7---------|----------------------/7-|-----7--------------||------------------|-------------------------|--------------------||------------------|-------------------------|--------------------||------------------|-------------------------|--------------------|
|-----------------------|--------------------------------------||-----------------------|--------------------------------------||-----------------------|--------------------------------------||-x-x--x-x----x-x--5--3-|--x-x---x-x-----x-x--------3-----5----||-----------------------|--------------------------------------||-----------------------|--------------------------------------|
| full full full|-----------------------|--------------------------------------||----------x-18b--------|-18b-------18br(18)----15-------------||----------x------------|--------------------17----17p15----15-||----------x------------|--------------------------------17----||-----------------------|--------------------------------------||-----------------------|--------------------------------------|
|
|-----------------------|--------------------------------------||-----------------------|--6-----------------------------------||--------------------/7-|-------7------------------------------||-----------------------|--------------------------------------||-----------------------|--------------------------------------||-----------------------|--------------------------------------|
|--------------------------------------------||--------------------------------------------||--------------------------------------------||--x--x--------x--x-----x-x----5--3----------||--------------------------------------------||--------------------------------------------|
|
|--------------------------------------------||--------------------------------------------||--------------------------------------------||-17p15----15--------------------------------||-------17----17-15-13------13---13-15p13----||----------------------15--------------------|
|
|--------------------------------------------||--------------------------------------------||--------------------------------/7----------||--------------------------------------------||--------------------------------------------||--------------------------------------------|
|-------------------------------------||-------------------------------------||-------------------------------------||--x--x--------x--x--------x-x--3---5-||-------------------------------------||-------------------------------------|
| full|-------------------------------------||-------------------------------------||-------------15-----17b========r(17)-||-------15h17----17-------------------||-15s17-------------------------------||-------------------------------------|
|
|-------------------------------------||--6----------------------------------||-------------------------------------||-------------------------------------||-------------------------------------||-------------------------------------|
|--------------------------------------------||--------------------------------------------||--------------------------------------------||-x--x--------x--x---------x----x------5---3-||--------------------------------------------||--------------------------------------------|
| full|--------------------------------------------||---15-------15--------15---------15--18b====||------17b19----17b19-----17b19--------------||--------------------------------------------||--------------------------------------------||--------------------------------------------|
|
|--------------------------------------------||--------------------------------------------||-----------------------------------------/7-||--------------------------------------------||--------------------------------------------||--------------------------------------------|
|------------------------------------||------------------------------------||------------------------------------||---x---x--x-x--x-x---------3--5-----||------------------------------------||------------------------------------|
| full|------------------------------------||-r(18)------------------------------||-------------------17br(17)p15---15-||------------------------------------||------------------------------------||------------------------------------|
|
|------------------------------------||---6--------------------------------||------------------------------------||------------------------------------||------------------------------------||------------------------------------|
|-------------------------------------------|||-------------------------------------------|||-------------------------------------------|||--x--x--------x-x------x--x--------5----3--|||-------------------------------------------|||-------------------------------------------||
| 1/4 full|-------------------------------------------|||-------------------------------------------|||-17p15------------15b----15-------17b------|||-------17p15-17-------------17p15----------|||-------------------------------------------|||-------------------------------------------||
NOTES: I’ve notated the bends as follows: quarter bend = 1/4 full bend = full
Please rate this tab:
x1.0