Audio Adrenaline - Worldwide tab

Song: Worldwide: One
Artist: Audio Adrenaline
Album: Worldwide

Verses & Chorus:e|---------------------------------|B|---------------------------------|G|-555-3-----------333---5-55-5555-|D|-555-3-3-33-3333-333-3-5-55-5555-|A|-333-1-3-33-3333-111-3-3-33-3333-|E|-------1-11-1111-----1-----------|
For most of the song, it sounds like tyler's playing power chords, but sometimes they sound like, um, full chords. or real chords. whatever you call them:
e|-333-1-1-11-1111-111-1-3-33-3333-|B|-555-3-1-11-1111-333-1-5-55-5555-|G|-555-3-2-22-2222-333-2-5-55-5555-|D|-555-3-3-33-3333-333-3-5-55-5555-|A|-333-1-3-33-3333-111-3-3-33-3333-|E|-333-1-1-11-1111-111-1-3-33-3333-|
the post chorus (while the other guitar has a solo), the first and third time,goes like this:e|-------------------------------------------------|B|-------------------------------------------------|G|-------------------------------------------------|D|-66-88-1010101010101010--66-88-1010101010101010--|A|-66-88-1010101010101010--66-88-1010101010101010--|E|-44-66-8-8-8-8-8-8-8-8---44-66-8-8-8-8-8-8-8-8---|
the second time it'se|-------------------------------------------------------------|B|-------------------------------------------------------------|G|-------55555555-------55555555----33-55555555----33-55555555-|D|-66-33-55555555-66-33-55555555-66-33-55555555-66-33-55555555-|A|-66-33-33333333-66-33-33333333-66-11-33333333-66-11-33333333-|E|-44-11----------44-11----------44-------------44-------------|
---------------------------------------------------------------------------- Artist:Audio Adrenaline Song Church Punks Album:Worldwide This is The main riff.
e---------------------------| B---------------------------| G---------------------8-8-8-| D---------------------8-8-8-| A---6-8-8-8-6-6-8-6-6-6-6-6-| E---6-6-6-6-6-6-6-6-6-------|
Play Twice, Then play this:
e------------------------| B------------------------| G------------------------| D--6-6-6-6-6-6-6-6-6-6-6-| A--6-6-6-6-6-6-6-6-6-6-6-| E--4-4-4-4-4-4-4-4-4-4-4-|
---------------------------------------------------------------------------- Dirty Audio Adrenaline alright, this is Dirty by Audio Adrenaline from their new CD Worldwide. The riffs are awesome, so enjoy. intro/chorus first guitar
-------------------------------------------------------------|-------------------------------------------------------------|-------------------------------------------------------------|---------------------8------------3-----------3--------------|--------3----6-8/10--------1-3/5------1-3/5------------------|1-1-3/5------------------------------------------------------|
repeat that, but the second time at the beginning only hit the 1 once 2nd guitar:
-------------------------------------------------------------|---------------1-------------------------1-3-----------------|--2^0--2^0--2---------------2^0--2^0--2----------------------|------------------3---03------------------------3----03------|-------------------------------------------------------------|-------------------------------------------------------------|
repeat until verse
-------------------------------------------------------------|---------------4--3--3--4--3--4--3---------------------------|---------------3--3--3--3--3--3--3---------------------------|--3--3---------5--3--3--5--3--5--3---------------------------|--3--3-------------------------------------------------------|--1--1-------------------------------------------------------|
then it goes into
-------------------------------------------------------------|---------3-6--------6-6-------3-6---------6-6----------------|------3----------7--------3------------7---------------------|---5-----------8--------5-----------8------------------------|-------------------------------------------------------------|-------------------------------------------------------------|
---------------------------------------------------------------------------- Song: Go and Be Artist: Audio Adrenaline Album: Worldwide C 2003 Forefront Records B5 799xxx Eb5/Bb 668xxx E5 022xxx C#5 x466xx F#5 244xxx G#m 466444 G#m/maj7 465444 G#m7 4x444x G#m6 4x344x Em 022000 E 022100
INTRO Gtr I B5 Eb5/Bb E5 C#5|-----------------|-------------------||-----------------|-------------------||-----------------|-----------6-6-6-6-||-9-9-9-9-8-8-8-8-|--2--2-2-2-6-6-6-6-||-9-9-9-9-6-6-6-6-|--2--2-2-2-4-4-4-4-||-7-7-7-7-6-6-6-6-|--0--0-0-0---------|
|
| Gtr II|-----------------|-------------------||-----------------|-------------------||-----------------|-------------------||-----1-----1-----|-------------1-2-1-||-------2-4---4-2-|---------2-4-------||-----------------|-------------------|
B5 Eb5/Bb E5 F#5|-------------------|---------------------||-------------------|---------------------||-------------------|---------------------||--9--9-9-9-8-8-8-8-|--2--2-2-2-4-4--4--4-||--9--9-9-9-6-6-6-6-|--2--2-2-2-4-4--4--4-||--7--7-7-7-6-6-6-6-|--0--0-0-0-2-2--2--2-|
|
|-------------------|---------------------||-------------------|---------------------||-------------------|---------------------||-------1-----1-----|---------------------||---------2-4---4-2-|---------------------||-------------------|-----4---2-----------|
VERSE 1 Gtr II G#m|---------------|---------||-----4---------|---------||---4-----------|---------||-6-------------|---------||---------------|---------||---------------|---------|
E|----------------|-------------||-------0--------|-----5-4-----||----------------|---------6-4-||-----2----------|-------------||---2------------|-------------||-0--------------|-------------|
Gtr I G#m|-------------|------------||-----4\------|-----4\-----||-----4\------|-----4\-----||-----6\------|-----6\-----||-----6\------|-----6\-----||-4-4-------0-|-4-4--------|
E B5 F#5|-----------------|-----------------||-----0-----------|-----------------||-----1--/4-4-4-4-|-----------------||-----2--/4-4-4-4-|-4-4-4-4-4-4-4-4-||-2-2-2--/2-2-2-2-|-4-4-4-4-4-4-4-4-||-0-0-------------|-2-2-2-2-2-2-2-2-|
Chorus 1 Gtr I (plays chords below) B5 Eb5/Bb E5 C#5 / / / / / / / / / / / / / / / / Gtr III||-------------------|-----------------|||o----------------7-|-------0-------5-|||--------8------8---|-----1-------6---|||------9------8-----|---2-------6-----|||o---9-----/6-------|-2-------4-------|||--7----------------|-----------------|
1. (play 1st time only) 2. (play 2nd time only) E5 C#5 E5 F#5 E5 / / / / / / / / / / / / / / / / /
|-----------------|------------------||------||-------0-------5-|-------0---------o||-0----||-----1-------6---|-----1---------3--||-1----||---2-------6-----|---2---------4----||-2----||-2-------4-------|-2---------4-----o||-2----||-----------------|---------2--------||------|
Verse 2||---------------|-----|||o---4----------|-----|||------4--------|-----|||---------------|-----|||o--------------|-----|||---------------|-----|
|--------------|---------------|||---4----------|------5-4-----o|||-----4--------|-3--------6-4--|||--------------|-4-------------|||--------------|-4------------o|||--------------|---------------||
Chorus 2 Gtr I B5 Eb5/Bb E5 C#5 / / / / / / / / / / / / / / / / Gtr III||-------------------|-----------------|||o----------------7-|-------0-------5-|||--------8------8---|-----1-------6---|||------9------8-----|---2-------6-----|||o---9-----/6-------|-2-------4-------|||--7----------------|-----------------|
1. 2. E5 C#5 E5 F#5 E5 / / / / / / / / / / / / / / / / /|-----------------|------------------||------||-------0-------5-|-------0---------o||-0----||-----1-------6---|-----1---------3--||-1----||---2-------6-----|---2---------4----||-2----||-2-------4-------|-2---------4-----o||-2----||-----------------|---------2--------||------|
Guitar Solo B5 Eb5/Bb E5 Em / / / / / / / / / / / / / / / / w/slide|----------------|-------------------||---------/7---7-|-/9---11/9--8--8\--||-8---6/4--------|-------------------||----------------|-------------------||----------------|-------------------||----------------|-------------------|
B5 Eb5/Bb E5 F#5 / / / / / / / / / / / / / / / /|--------------------------|--------------------||-/7-(7)\---------------7--|-/9----11--12-(12)\-||---------/8-(8)\-4-/8-----|--------------------||--------------------------|--------------------||--------------------------|--------------------||--------------------------|--------------------|
Bridge G#m G#m/maj7 G#m7 G#m6 ~|-----------------|------------------||-9---------------|-------------12\--||-----------------|------------------||-----------------|------------------||-----------------|------------------||-----------------|------------------|
|
| Gtr II|-----------------|------------------||-----4-------4---|-----4------------||---4---4---4---4-|---4---4------6---||-6-------5-------|-4---------6------||-----------------|---------8--------||-----------------|------------------|
~ ~~|-----------------|------------------|-------||-9---------------|---------12---14\-|-11----||-----------------|------------------|-------||-----------------|------------------|-------||-----------------|------------------|-------||-----------------|------------------|-------|
|
|-----------------|------------------|-------||-----4-------4---|-----4------------|-------||---4---4---4---4-|---4---4-------6--|-------||-6-------5-------|-4----------6-----|--8----||-----------------|----------8-------|-------||-----------------|------------------|-------|
Out-Chorus B5 Eb5/Bb E C#5 Gtr IV (acoustic)|---------------------|---------------------||---------------------|---------------------||-8-8-8-8-8-8-8-8-8-8-|-1-1-1-1-1-6-6-6-6-6-||-9-9-9-9-9-8-8-8-8-8-|-2-2-2-2-2-6-6-6-6-6-||-9-9-9-9-9-6-6-6-6-6-|-2-2-2-2-2-4-4-4-4-4-||-7-7-7-7-7-6-6-6-6-6-|-0-0-0-0-0-----------|
Gtr I E C#5 E F#5 / / / / Gtr IV|---------------------|---------------------||---------------------|---------------------||-1-1-1-1-1-6-6-6-6-6-|-1-1-1-1-1-3-3-3-3-3-||-2-2-2-2-2-6-6-6-6-6-|-2-2-2-2-2-4-4-4-4-4-||-2-2-2-2-2-4-4-4-4-4-|-2-2-2-2-2-4-4-4-4-4-||-0-0-0-0-0-----------|-0-0-0-0-0-2-2-2-2-2-|
Gtr I B5 Eb5/Bb E5 C#5 / / / / / / / / / / / / / / / / Gtr III|------------------|-----------------||----------------7-|-------0-------5-||-------8------8---|-----1-------6---||-----9------8-----|---2-------6-----||---9-----/6-------|-2-------4-------||-7----------------|-----------------|
E5 C#5 E5 F#5 / / / / / / / / / / / / / / / /|-----------------|-----------------||-------0-------5-|-------0---------||-----1-------6---|-----1---------3-||---2-------6-----|---2---------4---||-2-------4-------|-2---------4-----||-----------------|---------2-------|
B5 Eb5/Bb E5 C#5 / / / / / / / / / / / / / / / / 3x||-------------------|------------------||||o----------------7-|-------0-------5-o||||--------8------8---|-----1-------6----||||------9------8-----|---2-------6------||||o---9-----/6-------|-2-------4-------o||||--7----------------|------------------||
E5|-----------------|-----------------||-----------------|-----------------||-----------------|-----------------||-2-2-2-2-2-2-2-2-|-2-2-2-2-2-2-2-2-||-2-2-2-2-2-2-2-2-|-2-2-2-2-2-2-2-2-||-0-0-0-0-0-0-0-0-|-0-0-0-0-0-0-0-0-|
Gtr I B5 Eb5/Bb E5 C#5 / // / / / / / / / / / / / / / Gtr III||------------------|-----------------------|||o-----------------|-----------------------|||------------------|-----------------------|||------1-----1-----|-----------1--2--1-----|||o-------2-4---4-2-|-------2-4-------------|||------------------|-----------------------|
|
| Gtr V| ~~ ~ ~||------------------|-----------------------|||o-12--------------|---------7---/9---(9)\-|||------------------|-----------------------|||------------------|-----------------------|||o-----------------|-----------------------|||------------------|-----------------------|
1. (play 1st time only) B5 Eb5/Bb E5 F#5 / // / / / / / / / // / / / /|----------------|-------------------------------|||----------------|------------------------------o|||----------------|-------------------------------|||-1--1-----1-----|-------------------------------|||------2-4---4-2-|----------------------2-------o|||----------------|-----4--2--------2h4-----------||
|
| ~ ~~~~~~~~|----------------|-------------------------------|||-7--------------|----------/14-----------(14)\-o|||----------------|-------------------------------|||----------------|-------------------------------|||----------------|------------------------------o|||----------------|-------------------------------||
2. (play 2nd time only) E5 B5 / /// / /// /|-------------|-----------|||-------------|-----------|||-------------|-----------|||-------------|-----------|||-2------4----|--2--------|||-------------|-----------||
|
| ~ ~~~~~~~|-------------|-----------|||-7----/14----|-12--------|||-------------|-----------|||-------------|-----------|||-------------|-----------|||-------------|-----------||
---------------------------------------------------------------------------- Pierced Audio Adrenaline Intro A E D F#m E Verse A C#m/E Bm D (repeat)
Guitar notes during verse A C#m/E Bm D|-----------------------------------------2-2-------||---2-2------------------------3-3------------------||---------------------------------------------------||------------6-6-6b76-------0-----------------------||---------------------------------------------------||---------------------------------------------------|6b7 - on 6th fret, bend to equivalent of one fret (half step)in english - small bend
(I dunno why I tabbed that, it's barely audible anyway) Other verse (where band comes in) A E Bm D (repeat) Chorus (loud part with high singing) E Bm A E Bm D E Bm A E Bm D A ---------------------------------------------------------------------------- Song: Strong Artist: Audio Adrenaline Album: WORLDWIDE Words and Music by Audio Adrenaline Copyright 2003 Forefront Records A x02220 Asus2 x02200 D xx0232 E 022100 A 557xxx F#5 24xxxx D/F# x9777x E/Ab x 11 999x A/C# x4222x Verse 1 Gtr I A Asus2 A
Gtr I (when "/"s shown above tab staff, play chords) D E A / / / / / / / / / / / / / / / / Gtr II|-------------------|-------------------------||-------------------|-----------10-------10---||-------------------|------------9h11-----9---||-------------------|-------------------------||-------------------|-------------------------||-------------------|-------------------------|
A D / /////// / / //////|------------|---------------------||------------|-10-----10-----------||------------|--9h11---9h11--------||-11---------|---------------------||------------|---------------------||------------|---------------------|
E D A / / / / / / / / / / / / / / / /|-10/12----------------|---------------||------------10--------|---------------||-11/13-------9h11-----|-9-------------||----------------------|-9h11----------||----------------------|---------------||----------------------|---------------|
Chorus 1 D A / // / / / / / / / / / / ///|----------------------------|-------------------------||-----10------10-------------|---------10--------------||------9h11----9h11----------|----------9h11-----9-----||----------------------------|---9h11------------------||----------------------------|-------------------------||----------------------------|-------------------------|
D E / / / / / // / / /// / / / /|---------------------------|--------------------------------||----10------10-------------|--------------------------------||-----9h11----9-------------|-----------------------------9--||----------------9h11-9--7--|---------------------7-9-/11----||---------------------------|-7h9p7-----------7-9------------||---------------------------|--------------------------------|
D A D E / // / / /// / //// /// ////////|----------------------------|---------------------|---------||-----------10-----10--------|---------------------|---------||-9h11-------9h11---9h11-----|---------------------|---------||----------------------------|---------9h11p9-7----|---------||----------------------------|---------------------|---------||----------------------------|---------------------|---------|
Bridge A5 F#5 A5 F#5||----------------------|----------------------||||o---------------------|---------------------o||||----------------------|----------------------||||----------------------|----------------------||||o-7-7-7---4-4---4-4---|-7-7-7---4-4---4-4---o||||--5-5-5-0-2-2-0-2-2-0-|-5-5-5-0-2-2-0-2-2-0--||
Verse 2|------------|--------||------------|--------||------------|--------||------------|--------||---2h4------|--------||------------|--------|
|---------|----------------------||---------|-----10-----10--------||---------|------9h11---9--------||---------|---------------11p9-7-||---------|----------------------||---------|----------------------|
|-------------------|---------------------------||-------------------|---10-----10-10------------||-------------------|----9h11---9--9h11---------||-9/11--------------|---------------------------||-------------------|---------------------------||-------------------|---------------------------|
|
| Gtr I (acoustic)|--------5---7--9---|---------------------------||-------------------|---------------------------||-------------------|---------------------------||-------------------|---------------------------||-------------------|---------------------------||-------------------|---------------------------|
|-10/12-----------------------|----------||--------------10-----10------|----------||-11/13---------9h11---9h11---|-9--------||-----------------------------|-9h11-----||-----------------------------|----------||-----------------------------|----------|
Chorus 2|--------------------------|---------------------||-----7--x-7---------------|-----2--x-2----------||-----7--x-7-7-------------|-----2--x-2------2---||-----7--x-7-7h9--7-7------|-----2--x-2--------2-||-7h9---------------7h9--7-|-2h4---------2h4-----||--------------------------|---------------------|
|---------------------|-----------------------------||-----7--x-7----------|------9--x-x-----------------||-----7--x-7----------|------9--x-x-9---------------||-----7--x-7------7---|------9--x-x-9h11--9-9-------||-7h9---------7h9---9-|-9h11----------------9h11--9-||---------------------|-----------------------------|
|----------------------|---------------------||-----7--x-7-----------|-----2--x-2----------||-----7--x-7-----------|-----2--x-2------2---||-----7--x-7------7----|-----2--x-2----------||-7h9---------7h9---9\-|-2h4---------2h4---4-||----------------------|---------------------|
|--------------------|---------------------------||-----7--x-x------9\-|-----2--x-x-10-----10------||-----7--x-x------9\-|-----2--x-x--9h11---9------||-----7--x-x------9\-|-----2--x-x----------------||-7h9--------9h11----|-2h4-------------------12\-||--------------------|---------------------------|
Guitar Solo|------------------------|--------------------------||------------------------|-------5----5-5-5-5-------||------------2-4b6r(4)b6-|-4---x-4b6--4-4-4-4r(4)-2-||--------2-4-------------|---------hold bend--------||-0-0-/4-----------------|--------------------------||------------------------|--------------------------|
|----------------------|--------------------------------||----------------------|--------------------------------||----------------------|--------------------------------||-2h4--2---------------|--------------------------------||--------4-2-0---------|------------0-2b4r(2)-0-----0-0-||--------------0h2-0h2-|-0------0-2-------------0-2-----|
|------5---------------|-------------------------------||-5b7=====5r(5)-5b7----|-------------------------------||---hold bend----------|-4b6--4b6---4---x-4b6--4p2-----||----------------------|---------------------------4p2-||----------------------|-------------------------------||----------------------|-------------------------------|
|------5---------------|------------------------||-5b7=====5r(5)-5b7----|------------------------||---hold bend----------|-4b6--4b6---4-----------||----------------------|------------------------||----------------------|------------------------||----------------------|------------------------|
Gtr I A / /////// / /////// Gtr II|----------------|--------------||----------------|--------------||----------------|--------------||--9h11----------|-9h11---------||----------------|--------------||----------------|--------------|
|
| Gtr III|-12-------------|--------------||-12h14----------|--------------||----------------|--------------||----------------|--------------||----------------|--------------||----------------|--------------|
D E A / /// / / // /|------------------|-------------|----||------10----------|-------------|----||-------9h11---9---|-------------|----||------------------|-9h11--------|----||------------------|-------------|----||------------------|-------------|----|
Chorus 3|---------------------------|-----------------------||-7-x-x-----x-7-x-----------|-----2--x-2-x----------||-7-x-x-----x-7-x-----------|-----2--x-2-x----------||-7-x-x-----x-7-x------7----|-----2--x-2-x------2---||-------7h9--------7h9---9\-|-2h4-----------2h4---4-||---------------------------|-----------------------|
|-----------------------|------------------------------||-----7--x-7-x----------|------9--9-10-10-9-x-x--------||-----7--x-7-x----------|------9--9--9--9-9-x-x--------||-----7--x-7-x------7---|------9--9-11-11-9-x-x------9-||-7h9-----------7h9---9-|-9h11------------------9h11---||-----------------------|------------------------------|
|------------------------|-----------------------||-----7--x-7-x-x---------|-----2------3--2-------||-----7--x-7-x-x---------|-----2---------2-------||-----7--x-7-x-x-----7---|-----2-2h4-----------2-||-7h9------------7h9---9-|-2h4-------------2h4---||------------------------|-----------------------|
|--------------------------------|-----------------------||-----7--x-x---------------------|-----7--x-7--x---------||-----7--x-x---------------------|-----7--x-7--x-7-7-----||-----7--x-x------9--------------|-----7--x-7--x-9-7-----||-7h9--------9h11---11-12p11-9p7-|-7h9---------------7h9-||--------------------------------|-----------------------|
|---------------------|---------------------||-----2--x-2----------|-----7--x-7-x--------||-----2--x-2----------|-----7--x-7-x------7-||-----2--x-2------2---|-----7--x-7-x--------||-2h4---------2h4---4-|-7h9-----------7h9---||---------------------|---------------------|
|------------------------|-------------------||--9-10-10-9-9h10-9------|-----7--x-7--------||--9--9--9-9-9--9-9------|-----7--x-7------7-||--9-11-11-9-9h11-9------|-----7--x-7------7-||------------------------|-7h9---------7h9---||------------------------|-------------------|
|---------------------|--------------------||-----2--x-2----------|-----7--x-x------9\-||-----2--x-2----------|-----7--x-x------9\-||-----2--x-2------2---|-----7--x-x------9\-||-2h4---------2h4---4-|-7h9--------9h11----||---------------------|--------------------|
|---------------------------|-------------------||-----2--x-2--x-x-x---------|-----7--x-x------9-||-----2--x-2--x-x-x-2-----2-|-----7--x-x------9-||-----2--x-2--x-x-x-2h4---2-|-----7--x-x------9-||-2h4-----------------------|-7h9--------9h11---||---------------------------|-------------------|
|--------------------------------|------10---------12----|----||---------15-15-14-------14------|-----------------------|----||--14-----14-14-14-----------14--|-9/11------11/13-------|----||--14h16--------14---------------|-----------------------|----||------------------14h16---------|-----------------------|----||--------------------------------|-----------------------|----|
Outro A5 F#5 A5 F#5|--------------------------|--------------------------||--------------------------|--------------------------||--------------------------|--------------------------||--------------------------|--------------------------||-7-7-7---4---4------4-4---|--7-7--7----4-4-----4-4---||-5-5-5-0-2---2---0--2-2-0-|--5-5--5-0--2-2---0-2-2-0-|
|
| Gtr III (w/ slide)|--------------------------|-/7-----------------------||-------------------/7---5-|-----------/5-5-7---------||-----------2/4/2----------|--------------------6/4-2-||--------------------------|--------------------------||--------------------------|--------------------------||--------------------------|--------------------------|
|-----------------------------|-------------------------|||-----------------------------|-------------------------|||-----------------------------|-------------------------|||-----------------------------|-------------------------|||-7---7--7------4-4-----4-4---|--7---7-7---4--4---4-4---|||-5---5--5---0--2-2---0-2-2-0-|--5---5-5-0-2--2-0-2-2-0-||
|
|-----------------------------|-------------------------|||--------------/5-5-7---------|-------------------------|||-4/6---(6)\------------6/4-2-|-(2)\--------------------|||-----------------------------|-------------------------|||-----------------------------|-------------------------|||-----------------------------|-------------------------||
Tablature Legend ---------------- h - hammer-on p - pull-off b - bend pb - pre-bend r - bend release (if no number after the r, then release immediately) /\ - slide into or out of = - hold bend; also acts as connecting device for hammers/pulls ---------------------------------------------------------------------------- Pour Your Love Down Audio Adrenaline This is a nice song. Here's a key: I=Intro C1=Chorus 1 V1=Verse 1 C2=Chorus 2 V2=Verse 2 B=Bridge PC1=Pre-Chorus 1 E=Ending PC2=Pre-Chorus 2 I: A D A D V1: D E A D D E A PC1: E Bm E D C1: A D E D A D E Bm V2: D E A D D E A PC2: E Bm A E Bm E D C1: A D E D A D E Bm B: G D A G D A C2: A D E D A D E D A D E Bm E: A G E D A G D (2x) A ---------------------------------------------------------------------------- Audio adrenaline Leaving ninety nine Worldwide Intro chords: C Am Em G C Am Em G C Am Em G
-----------------------------------------------------------|-----------------------------------------------------------|-----------------------------------------------------------|-----------------------------------------------------------|-----------------------------------------------------------|-------------12-9-7-9------9---11-97---5-129----7-9------|
C Am Em G C Am Em G C Am Em G C Am Em G C Am Em G C Am Em G ---------------------------------------------------------------------------- Miracle Audio Adrenaline
-----------------------|----7~~-----7----------|--9~~-9~~-9---9-6------|------------------7----|-----------------------|-----------------------|
Verse I A C# D (all p.m.) 8 times Chorus: E A D E A (twice)
Fill:-----------------------------------------------------------------------|----7~~-----7--------------7~~-----7-----------------------------------|--9~~-9~~-9---9-6--------9~~-9~~-9---9-6-----6~~-----------------------|-------------------------------------------9~~-9~-7~~------------------|-----------------------------------------------------------------------|-----------------------------------------------------------------------|
Verse II:Chords same as Verse I---------------------------|---------------------------|-10-----10----10-10-10-----|-/7-----7------7--7--7\----|(On the slides, slide down and right back up)---------------------------|---------------------------|
Bridge: F#m Bm F#m Bm C#m Bm C#m Bm Repeat chorus End on the fill on the timing of the intro (listen to the song, you'll know what it mean)the last stray note and the end is an E(G string 7th fret) ---------------------------------------------------------------------------- Worldwide: Two Audio Adrenaline Chorus:
e----------------------|B----------------------|G----------------------|D-2222-2222--5555-7777-| RepeatA-2222-2222--5555-7777-|E-0000-0000--3333-5555-| E5 G5 A5
Verse and prechorus:
e---------------------|B---------------------|G-9-99-9-9999-9-------|D-9-99-9-9999-9-7-9-2-| RepeatA-7-77-7-7777-7-7-9-2-|E---------------5-7-0-|
---------------------------------------------------------------------------- Start a Fire Audio Adrenaline- Worldwide Ok, this is my first tab, so if it doesn't look right, sorry! The chords through most of the song are just B, D, and, E and use power or bar chords. In the live version they play it in A which I think sounds better but they both rock. Intro: B D E Verse: B D E palm mute Pre-chorus thing: D-Eb-E (this chord change is different so listen to it to get the rythm) Chorus: B D E Bridge (the light it up part): play B then slide to A and back to B. If you listen to it sounds right.
Tyler also plays a lead part in a lot of the song. Heres the opening riffE---------------------------------------------------------------------------|B----------------------------------------------10^---------10^--------------|G------7-9-9^-9-7--------7v-7v---7v-9-7-9^-9-7-----9^-9-7-------------------|D--/9-------------9-7-9--------9--------------------------------------------|A---------------------------------------------------------------------------|
---------------------------------------------------------------------------- OCEAN FLOOR Audio Adrenaline From the 2001 Album LIFT CHORDS: CIII x 3 5 5 5 x C x 3 2 0 1 0 Fmaj7 x x 3 2 1 0 Am x 0 2 2 1 0 G 3 2 0 0 3 3 Dm x x 0 2 3 1 F 1 3 3 2 1 1 C5/Eb x x 1 0 1 x
INTRO 74 bpm CIII Gtr I (elec. dist)|---------------------|--------------------||----5-5-6p5h6--5-6p5-|----5-5-6p5h6-5-6p5-||-5--5-5-5---5--5-5---|-5--5-5-5---5-5-5---||-5--5-5-5---5--5-5---|-5--5-5-5---5-5-5---||-3----------3--------|-3----------3-------||---------------------|--------------------|
|
| Gtr II (elec. dist)|---------------------|--------------------||---------------x-x-x-|--------------------||---------------x-x-x-|--------------------||---------------x-x-x-|--------------------||---------------x-x-x-|--------------------||---------------------|--------------------|
CIII|---------------------|------------------------||-----5-5-6p5h6-5-6p5-|------5-5-6p5h6---5-6p5-||--5--5-5-5---5-5-5---|--5---5-5-5---5---5-5---||--5--5-5-5---5-5-5---|--5---5-5-5---5---5-5---||--3----------3-------|--3-----------3---------||---------------------|------------------------|
| C|-^0------------------|------------------------||-^1------------------|----------------------1-||-^0------------------|--------------------0---||-^2------------------|----------------2h3-----||-^3------------------|------------------------||---------------------|------------------------|
C Fmaj7 Gtr III (acoustic strumming above chords) Gtr I|---------------------------|---------------------------||---1h3-3-1-3p1-3-----1-3p1-|-x-x-1h3-3-1-3p1-3---1-3p1-||---------------------------|-x-x-----------------------||---------------------------|-x-x-----------------------||---------------------------|---------------------------||---------------------------|---------------------------|
|
| Gtr II|---------------------------|-0-------------------------||-1-------------------1---1-|-1-----------------------1-||-0-------------------0-0-0-|-2---------------------0---||-2-------------------2-2-2-|-3-----------------2h3-----||-3---------------------3---|---------------------------||---------------------------|---------------------------|
Am G C|-------------------------|-------------------------||-x-x-1h3-3-1-3p1-3-1-3p1-|-x-x-1h3-3-1-3p1-3-1-3p1-||-x-x---------------------|-x-x---------------------||-x-x---------------------|-x-x---------------------||-------------------------|-------------------------||-------------------------|-------------------------|
|
|-0-----------------------|-------------------------||-1-----------3-----------|-1-----------------------||-2-----------0-----------|-0-----------------------||-2-----------0-----------|-2-----------------------||-0-----------2-----------|-3-----------------------||-------------3-----------|-------------------------|
VERSE I Fmaj7 C Gtr III (acoustic continues strumming chords) Gtr II|-0-----------|-------------||-1-----------|-1-----------||-2-----------|-0-----------||-3-----------|-2-----------||-------------|-3-----------||-------------|-------------|
Fmaj7 G|-0-----------|----------------||-1-----------|-3--------------||-2-----------|-0--------------||-3-----------|-0--------------||-------------|-2----2---------||-------------|-3--------------|
Dm C|-----------------|-0-----------||-------3----3----|-1-----------||-------0h2--0----|-0-----------||-0---------------|-2-----------||-----------------|-3-----------||-----------------|-------------|
Dm F|-------------------|-------------||-3-----------------|-1-----------||-2-----2--0--------|-2-----------||-0-----------------|-3-----------||-------------------|-3-----------||-------------------|-------------|
CHORUS C Fmaj7 Gtr III (chords) Gtr I||----------------------------|---------------------------|||o---1h3-3-1--3p=1-3---1-3p1-|-x-x-1h3-3-1-3p1-3---1-3p1-|||----------------------------|-x-x-----------------------|||----------------------------|-x-x-----------------------|||o---------------------------|---------------------------|||----------------------------|---------------------------|
|
| Gtr II||----------------------------|-0-------------------------|||--1-----------------------1-|-1-----------------------1-|||o-0---------------------0---|-2---------------------0---|||o-2---------------2-2h3-----|-3-----------------2h3-----|||--3-------------------------|---------------------------|||----------------------------|---------------------------|
Am G|-------------------------||-x-x-1h3-3-1-3p1-3-1-3p1-||-x-x---------------------||-x-x---------------------||-------------------------||-------------------------|
|
|-0-----------------------||-1-----------3-----------||-2-----------0-----------||-2-----------0-----------||-0-----------2-----------||-------------3-----------|
______________________________________________________ |1. | 2. C C|----------------------------||-------------------------||-x-x-1h3-3-1-3p1-3---1-3p1-o||-x-x-1h3-3-1-3p1-3-1-3p1-||-x-x------------------------||-x-x---------------------||-x-x------------------------||-x-x---------------------||---------------------------o||-------------------------||----------------------------||-------------------------|
|
|----------------------------||-------------------------||-1-----------------------1-o||-1-----------------------||-0---------------------0----||-0-----------------------||-2-----------------2h3------||-2-----------------------||-3-------------------------o||-3-----------------------||----------------------------||-------------------------|
VERSE 2 Fmaj7 C Gtr II|-0-----------|-------------||-1-----------|-1-----------||-2-----------|-0-----------||-3-----------|-2-----------||-------------|-3-----------||-------------|-------------|
Fmaj7 G|-0-----------|----------------||-1-----------|-3--------------||-2-----------|-0--------------||-3-----------|-0--------------||-------------|-2----2---------||-------------|-3--------------|
Dm C|-----------------|-0----------------||-------3----3----|-1----------------||-------0h2--0----|-0------------0---||-0---------------|-2--------2h3---2-||-----------------|-3----------------||-----------------|------------------|
Dm F F|--------------------|----------------|-------------------||-----3--------------|------1---------|-1-------------1-1-||-----2--2--0--------|------2---------|-2-------------2-2-||-0------------------|------3---------|-3-------------3-3-||--------------------|-3--------------|-3-----------------||--------------------|----------------|-------------------|
CHORUS 2 C Fmaj7 Gtr III (chords) Gtr I||--------------------------|---------------------------|||o---1h3-3-1-3p1-3---1-3p1-|-x-x-1h3-3-1-3p1-3---1-3p1-|||--------------------------|-x-x-----------------------|||--------------------------|-x-x-----------------------|||o-------------------------|---------------------------|||--------------------------|---------------------------|
|
| Gtr II||--------------------------|-0-------------------------|||o-1---------------------1-|-1-----------------------1-|||--0-------------------0---|-2---------------------0---|||--2---------------2h3-----|-3-----------------2h3-----|||o-3-----------------------|---------------------------|||--------------------------|---------------------------|
Am G|-------------------------||-x-x-1h3-3-1-3p1-3-1-3p1-||-x-x---------------------||-x-x---------------------||-------------------------||-------------------------|
|
|-0-----------------------||-1-----------3-----------||-2-----------0-----------||-2-----------0-----------||-0-----------2-----------||-------------3-----------|
______________________________________________________ |1.,2. | 3. C C 3x|----------------------------||-------------------------||-x-x-1h3-3-1-3p1-3---1-3p1-o||-x-x-1h3-3-1-3p1-3-1-3p1-||-x-x------------------------||-x-x---------------------||-x-x------------------------||-x-x---------------------||---------------------------o||-------------------------||----------------------------||-------------------------|
|
| 3x|----------------------------||-------------------------||-1-----------------------1-o||-1-----------------------||-0---------------------0----||-0-----------------------||-2-----------------2h3------||-2-----------------------||-3-------------------------o||-3-----------------------||----------------------------||-------------------------|
SOLO C5/Eb Gtr I|-----------|------------||-1---------|------------||-0---------|------------||-1------3--|------------||-----------|-3----------||-----------|------------|
Gtr I|-----------------|--------------------------------||-1---------------|--------------------------------||-0----------0----|--------------------------------||-1----------3----|--------------------------------||-----------------|--3-----------------------------||-----------------|--------------------------------|
|
| Gtr II|-----------------|--------------------------------||-----3-b4r(3)p1--|-------13b15r(13)-13b15r(13)----||-----------------|-----------------------------12-||-----------------|--------------------------------||-----------------|--------------------------------||-----------------|--------------------------------|
|---------------------------|------------------------------------------||-1-------------------------|------------------------------------------||-0-------------------------|----------------------------------7p5-7p5-||-1-------------------------|------------------------------------------||-----------------1-h-3---5-|-3----------------------------------------||---------------------------|------------------------------------------|
| hold bend|---------------------------|------------------------------------------||------------13--13---------|----13b15r(13)-13b15r(13)-----6p5-6p5-----||----14b15-----pb14r(14)-12-|--------------------------12----------7p5-||---------------------------|------------------------------------------||---------------------------|------------------------------------------||---------------------------|------------------------------------------|
F|----------------------------|-------------------|-1--------------||--------1-------------------|-------------------|-1------------1-||-----0-----0----------------|-------------------|-2----------0---||-0h1------------------------|-3---3-3-3-3-------|-3------2h3-----||----------------------------|-------------------|-3--------------||----------------------------|-------------------|----------------|
|
|----------------------------|-------------------|----------------||-----------6--6-------------|-5h6-6-6-6-6-6-6-6-|-6--------------||-7b8-------7----pb7r(7)-5---|-5-5-5-5-5-5-5-5-5-|-5--------------||----------------------------|-------------------|----------------||----------------------------|-------------------|----------------||----------------------------|-------------------|----------------|
CHORUS 3 C Fmaj7 Gtr III (chords) Gtr I||--------------------------|---------------------------|||o---1h3-3-1-3p1-3---1-3p1-|-x-x-1h3-3-1-3p1-3---1-3p1-|||--------------------------|-x-x-----------------------|||--------------------------|-x-x-----------------------|||o-------------------------|---------------------------|||--------------------------|---------------------------|
|
| Gtr II||--------------------------|-0-------------------------|||o-1---------------------1-|-1-----------------------1-|||--0-------------------0---|-2---------------------0---|||--2---------------2h3-----|-3-----------------2h3-----|||o-3-----------------------|---------------------------|||--------------------------|---------------------------|
____________________________ |1.,2.,3. | Am G C 4x|-------------------------|----------------------------|||-x-x-1h3-3-1-3p1-3-1-3p1-|-x-x-1h3-3-1-3p1-3---1-3p1-o|||-x-x---------------------|-x-x------------------------|||-x-x---------------------|-x-x------------------------|||-------------------------|---------------------------o|||-------------------------|----------------------------||
|
| 4x|-0-----------------------|----------------------------|||-1-----------3-----------|-1-----------------------1-o|||-2-----------0-----------|-0---------------------0----|||-2-----------0-----------|-2-----------------2h3------|||-0-----------2-----------|-3-------------------------o|||-------------3-----------|----------------------------||
_____________________________|4. C|-----------------------------||-x-x-1h3-3-1-3p1-3----1-3p1--||-x-x-------------------------||-x-x-------------------------||-----------------------------||-----------------------------|
|
|--------------------------8--||-1----------------------8----||-0-----------------9h10------||-2---------------------------||-3---------------------------||-----------------------------|
70 bpm (tempo slows down) C Fmaj7 Gtr III (chords) Gtr II|------------|---------------8-||------------|-------------8---||-9----------|--------9h10-----||------------|-----------------||------------|-----------------||------------|-----------------|
Am G C|---------------|---------*||---------------|---------*||-9-----10-9----|---------*||---------------|-10------*||---------------|---------*||---------------|---------*|
Tablature Legend ---------------- h - hammer-on p - pull-off b - bend ex: |--14b15r(14)--|
bend the string up half a step and then release pb - pre-bend ex: |--14b15--pb14r(14)-| the first is a half bend, the bend is held and the string is struck again and then released r - bend release (if no number after the r, then release immediately) /\ - slide into or out of x - on rhythm slash represents muted slash
Misc Legend ----------- | - bar || - double bar ||o - repeat start o|| - repeat end
Tap to rate this tab
 
# A B C D E F G H I J K L M N O P Q R S T U V W X Y Z