Audiovent - Stalker tab

Band=- Audiovent
Song- Stalker

Tuning: Standard (E-B-G-D-A-E)

Notes:

This song is played with distortion UNLESS OTHERWISE NOTED!
The entire song with the exception of the Intro 1 is "swing"


Song Structure:

Intro 1
Intro 2
Verse
Chorus
Verse
Chorus
Bridge
Breakdown
Chorus


Intro 1 (clean)

|---------------------------------||*-------------------------------*||------------7-7---9-9-------9-9--||--9-9--9-9--7-7---9-9-------9-9--||*-9-9--9-9--5-5---7-7-------7-7-*||--7-7--7-9-------------0-0-------|
Then pic slide on E String.... Intro 2
|--------------------------|-------------------0-0-------------||*-------------------------|-------------------0-0------------*||--4-4---7-7---9-9---9-9---|-4-4---7-7---9-9---2-2-------------||--4-4---7-7---9-9---9-9---|-4-4---7-7---9-9---2-2-------------||*-2-2---5-5---7-7---7-7---|-2-2---5-5---7-7---0-0------------*||--2-2---5-5---7-7---7-7---|-2-2---5-5---7-7---0-0-------------|
| ||--------------------------|-------------0-0---0-0---0-0--0-0--||*-------------------------|-------------0-0---0-0---0-0--0-0-*||--4-4---7-7---9-9---9-9---|-4-4---7-7---2-2---2-2---2-2--2-2--||--4-4---7-7---9-9---9-9---|-4-4---7-7---2-2---2-2---2-2--2-2--||*-2-2---5-5---7-7---7-7---|-2-2---5-5---0-0---0-0---0-0--0-0-*||*-2-2---5-5---7-7---7-7---|-2-2---5-5---0-0---0-0---0-0--0-0--|
Verse (clean)
|-----0-------0-------0-------0---||---0---0---0---0---0---0---0---0-||-8-------8-------8-------8-------||---------------------------------||---------------------------------||---------------------------------|
|-----0-------0-------0-------0---||---0---0---0---0---0---0---0---0-||-4-------4-------1-------1-------||---------------------------------||---------------------------------||---------------------------------|
|-----0-------0-------0-------0---||---0---0---0---0---0---0---0---0-||-8-------8-------8-------8-------||---------------------------------||---------------------------------||---------------------------------|
|-----0-------0-------0-------0---||---0---0---0---0---0---0---0---0-||-4-------4-------4-------4-------||---------------------------------||---------------------------------||---------------------------------|
|-----0-------0-------0-------0---||---0---0---0---0---0---0---0---0-||-8-------8-------8-------8-------||---------------------------------||---------------------------------||---------------------------------|
|-----0-------0-------0-------0---||---0---0---0---0---0---0---0---0-||-4-------4-------1-------1-------||---------------------------------||---------------------------------||---------------------------------|
|-----0-------0-------0-------0---||---0---0---0---0---0---0---0---0-||-8-------8-------8-------8-------||---------------------------------||---------------------------------||---------------------------------|
|-----0-------0-------0-------0---||---0---0---0---0---0---0---0---0-||-4-------4-------4-------4-------||---------------------------------||---------------------------------||---------------------------------|
Chorus
|------------------------|-------------------0-0--------------------------------||*-----------------------|-------------------0-0-------------------------------*||--4-4---7-7---9-9---9-9-|-4-4---7-7---9-9---2-2--------------------------------||--4-4---7-7---9-9---9-9-|-4-4---7-7---9-9---2-2--------------------------------||*-2-2---5-5---7-7---7-7-|-2-2---5-5---7-7---0-0-------------------------------*||--2-2---5-5---7-7---7-7-|-2-2---5-5---7-7---0-0--------------------------------|
| |
|------------------------|-------------0-0---0-0---0-0---0-0---0-0---0-0---0-0--||*-----------------------|-------------0-0---0-0---0-0---0-0---0-0---0-0---0-0-*||--4-4---7-7---9-9---9-9-|-4-4---7-7---2-2---2-2---2-2---2-2---2-2---2-2---2-2--||--4-4---7-7---9-9---9-9-|-4-4---7-7---2-2---2-2---2-2---2-2---2-2---2-2---2-2--||*-2-2---5-5---7-7---7-7-|-2-2---5-5---0-0---0-0---0-0---0-0---0-0---0-0---0-0-*||--2-2---5-5---7-7---7-7-|-2-2---5-5---0-0---0-0---0-0---0-0---0-0---0-0---0-0--|
|------------------------|-------------------0-0--------------------------------||*-----------------------|-------------------0-0-------------------------------*||--4-4---7-7---9-9---9-9-|-4-4---7-7---9-9---2-2--------------------------------||--4-4---7-7---9-9---9-9-|-4-4---7-7---9-9---2-2--------------------------------||*-2-2---5-5---7-7---7-7-|-2-2---5-5---7-7---0-0-------------------------------*||--2-2---5-5---7-7---7-7-|-2-2---5-5---7-7---0-0--------------------------------|
| |
|------------------------|-------------0-0---0-0---0-0---0-0---0-0---0-0---0-0--||*-----------------------|-------------0-0---0-0---0-0---0-0---0-0---0-0---0-0-*||--4-4---7-7---9-9---9-9-|-4-4---7-7---2-2---2-2---2-2---2-2---2-2---2-2---2-2--||--4-4---7-7---9-9---9-9-|-4-4---7-7---2-2---2-2---2-2---2-2---2-2---2-2---2-2--||*-2-2---5-5---7-7---7-7-|-2-2---5-5---0-0---0-0---0-0---0-0---0-0---0-0---0-0-*||--2-2---5-5---7-7---7-7-|-2-2---5-5---0-0---0-0---0-0---0-0---0-0---0-0---0-0--|
Bridge
|---------------------------------||---------------------------------||---------------------------------||-4-4-4-4-4-4-4-4-7-7-7-7-7-7-7-7-||-4-4-4-4-4-4-4-4-7-7-7-7-7-7-7-7-||-2-2-2-2-2-2-2-2-5-5-5-5-5-5-5-5-|
|---------------------------------||---------------------------------||---------------------------------||-4-4-4-4-4-4-4-4-7-7-7-7-7-7-7-7-||-4-4-4-4-4-4-4-4-7-7-7-7-7-7-7-7-||-2-2-2-2-2-2-2-2-5-5-5-5-5-5-5-5-|
|---------------0--0-0-0--0-||---------------0--0-0-0--0-||---------------2--2-2-2--2-||-4---4-4-4--4--2--2-2-2--2-||-4---4-4-4--4--0--0-0-0--0-||-2---2-2-2--2--0--0-0-0--0-|
|--------------||--------------||--------------||-4---4-4-4--4-||-4---4-4-4--4-||-2---2-2-2--2-|
|-000000000000000000000000-||-000000000000000000000000-||-222222222222222222222222-||-222222222222222222222222-||-000000000000000000000000-||-000000000000000000000000-| alternate pick this part fast (double speed)
Breakdown (clean)
|---------------------|---------------------||*--------------------|--------------------*||-------7-7--9-9--9-9-|------7-7--9-9--9-9--||--9-9--7-7--9-9--9-9-|-9-9--7-7--9-9--9-9--||*-9-9--5-5--7-7--7-7-|-9-9--5-5--7-7--7-7-*||--7-7--5-5--7-7--7-7-|-7-7--5-5--7-7--7-7--|
Song Structure: Intro 1 Intro 2 Verse Chorus Verse Chorus Bridge Breakdown Chorus
Tap to rate this tab
 
# A B C D E F G H I J K L M N O P Q R S T U V W X Y Z