August Burns Red – Chasing The Dragon tab ver. 3

[Chasing The Dragon]
[Lost Messengers: The Outtakes]
[August Burns Red]

Tuning: Drop C (CGCFAD)
joshuaoliveira@hotmail.com

watch times, it doesnt always go in order sometimes two riffs overlap
each other. watch scores, sometimes it shows two guitar parts n sometimes
just one. watch times played, i just write out the riff once to conserve
space. if my gp gets accepted you that for reference. symbols at the bottum.

[Riff 1] - [00:01] - [00:40]- -------------------------------------------------------------------|- -------------------------------------------------------------------|- -------7---6---------------------------7---6-------------6h7p6-----|- -----------------7p4-------7p4-----------------------6h7-------7---|- -----------------------7-------------------------7h9---------------|- -444-4---4---4-4-----4---4-----4-444-4---4---4-4-----------------0-|PM ..... . ... . . ....... . ... .
- -------------------------------------------------9h10p9h10p9----12-|- -------7---10--------5h7---------------7---9h10--------------10----|- -----------------6h7-----------------------------------------------|- -----------------------------6-------------------------------------|- -------------------------7h9---------------------------------------|- -000-0---0---0-0---------------0-000-0---0-----0-------------------|PM ..... . ... ....... . .
- -10-9----|- ------10-|- ---------|- ---------|- ---------|- ---------|
[Riff 2, Gtr 1 & 2] - [00:20] - [00:40]----| 2x- -----------------------------------------|- -----------------------------------------|- -6~-------6~-----------------------------|- -------------------4~-------4~-----------|- -----------------------------------------|- -----------------------------------------|
-- -------------------------------------|- -------------------------------------|- -------------------------------------|- -7~-------7~-------------------------|- -------------------5~-------5~-------|- -------------------------------------|
----------------------------------------------------------------------------
[Riff 3] - [00:40] - [00:44]- ----------------------------------------------------------|- ----------------------------------------------------------|- ----------------------------------------------------------|- -4------4------4------4------0------0------0------0-------|- -4---4444---4444---4444---4440---0000---0000---0000---000-|- -4---4444---4444---4444---4440---0000---0000---0000---000-|PM ... ... ... ... ... ... ... ...
----------------------------------------------------------------------------
[Riff 4, Gtr 1 & 2] - [00:44] - [00:49]- ----------------------------------------------------------|- ----------------------------------------------------------|- ----------------------------------------------------------|- -4------4------4------4------0------0------0------0-------|- -4---4444---4444---4444---4440---0000---0000---0000---000-|- -4---4444---4444---4444---4440---0000---0000---0000---000-|
PM ... ... ... ... ... ... ... ...-- ----------------------------------------------------------|- ----------------------------------------------------------|- -6------6------6------6-----------------------------------|- -7---7777---7777---7777---7774------4------4------4-------|- -----------------------------5---5555---5555---5555---555-|- ----------------------------------------------------------|PM ... ... ... ... ... ... ... ...
---------------------------------------------------------------------------- [Riff 3] - [00:49] - [01:09] - 4x
[Riff 5] - [00:49] - [01:09]- --------------------------------------------------------------------------|- --------------------------------------------------------------------------|- --------------------------------------------------4-6---------------------|- -4------------7----------------------4--------6-8-------------------------|- -------------------4------------5----------------------4--------5----7----|- --------------------------------------------------------------------------|AP ........................................................................
- --------------------------------------------------------------------------|- --------------------------------------------------------------------------|- ----------7----6----------------------------------------------------------|- -4---------------------------------------------12p11p0-11p9p0-9p7p0-7p6p0-|- --------------------4--------5----7----9----------------------------------|- --------------------------------------------------------------------------|AP .............................................
- --------------------|- --------------------|- --------------------|- --------------------|- -4--------5----7----|- --------------------|AP ..................
----------------------------------------------------------------------------
[Riff 6] - [01:09] - [01:33]----------------------------------------| 4x- ------------------------------------------------------------------|- ------------------------------------------------------------------|- ------------------------------------------------------------------|- ------------------------------------------------------------------|- -4-4-4-4-4-4-4-4-4-4-4-4-4-4-4-4-0-0-0-0-0-0-0-0-0-0-0-0-0-0-0-0--|- -4-4-4-4-4-4-4-4-4-4-4-4-4-4-4-4-0-0-0-0-0-0-0-0-0-0-0-0-0-0-0-0--|PM ...............................................................
[Riff 7] - [01:09] - [01:33]-----------------------------------------------| 2x- -------------------------------------------------------------------------|- -------------------------------------------------------------------------|- ---7-6-------------7-6---------------------------------------------------|- -------7---------------7-------------------------7-7-7-7/11-11-11-11-11--|- -4-------4-4-4-4-4-------4-4-4-4-------5\4-4-4-4-------------------------|- ---------------------------------7-7-7-----------------------------------|
- ------------------------------------------------------------------------|- ---10-9-----------------10-9--------------------------------------------|- --------9--------------------9------------------------------------------|- -11-------11-11-11-11-11-------11-11-11-11----------------7-7-7-7/11-11-|- ------------------------------------------------5\4-4-4-4---------------|- ------------------------------------------7-7-7-------------------------|
- ----------|- ----------|- ----------|- -11-11-11-|- ----------|- ----------|
----------------------------------------------------------------------------
[Riff 8, Gtr 1 & 2] - [01:33] - [01:36]- ----------9---9---9/14-14-14-14/17-17----|- -10-10-10--------------------------------|- -----------------------------------------|- -----------------------------------------|- -----------------------------------------|- -----------------------------------------|
-- -----------------------------------14----|- ----------10--10-10/14-14br-----15-------|- -11-11-11--------------------------------|- -----------------------------------------|- -----------------------------------------|- -----------------------------------------|
----------------------------------------------------------------------------
[Riff 9] - [01:36] - [01:58]- ---------------------------------------------------------|- ---------------------------------------------------------|- ---------------------------------------------------------|- -4--4--4-4-4-4--4-4--4-4-4-4-0--0--0-0-0-0--0-0--0-0-0-0-|- -4--4--4-4-4-4--4-4--4-4-4-4-0--0--0-0-0-0--0-0--0-0-0-0-|- -4--4--4-4-4-4--4-4--4-4-4-4-0--0--0-0-0-0--0-0--0-0-0-0-|
- ---------------------------------------------------------|- ---------------------------------------------------------|- ---------------------------------------------------------|- -4--4--4-4-4-2--2-2--2-2-2-2-2--2--2-2-2-2--2-2--2-2-2-2-|- -2--2--2-2-2-0--0-0--0-0-0-0-2--2--2-2-2-2--2-2--2-2-2-2-|- -----------------------------2--2--2-2-2-2--2-2--2-2-2-2-|
- ---------------------------------------------------------|- ---------------------------------------------------------|- ---------------------------------------------------------|- -4--4--4-4-4-4--4-4--4-4-4-4-0--0--0-0-0-0--0-0--0-0-0-0-|- -4--4--4-4-4-4--4-4--4-4-4-4-0--0--0-0-0-0--0-0--0-0-0-0-|- -4--4--4-4-4-4--4-4--4-4-4-4-0--0--0-0-0-0--0-0--0-0-0-0-|
- ---------------------------------------------------------|- ---------------------------------------------------------|- ---------------------------------------------------------|- -4--4--4-4-4-4--4-4--4-4-4-4-4--4--4-4-4-2--4-4--4-4-4-4-|- -2--2--2-2-2-2--2-2--2-2-2-2-4--4--4-4-4-2--4-4--4-4-4-4-|- -----------------------------4--4--4-4-4-2--4-4--4-4-4-4-|
- ---------------------------|- ---------------------------|- ---------------------------|- -4--4--4-4-4-2--4-4-4-4----|- -2--2--2-2-2-2--4-4-4-4----|- -------------2--4-4-4-4----|
[Riff 10, Gtr 1 & 2] - [01:58]- ----------------------------------------------------------------|- ----------------------------------------------------------------|- -------------6--6-6--6-6-6--7---7----7--7--7-------------6--7---|- -4--4--4-4-4-------------------------------------7---9----------|- ----------------------------------------------------------------|- ----------------------------------------------------------------|
-- -------------9--9-9--9-9-9--10--10---10-10-10-10---------9--10--|- -7--7--7-7-7-------------------------------------10--12---------|- ----------------------------------------------------------------|- ----------------------------------------------------------------|- ----------------------------------------------------------------|- ----------------------------------------------------------------|
- ----------------------------------------------------------------|- -7--7--7-7-7----------------------------------------------------|- -------------9--9-9--9-9-9/14--14--14-14-14-13brbrbr------------|- ----------------------------------------------------------------|- ----------------------------------------------------------------|- ----------------------------------------------------------------|
-- ----------------------------------------------------------------|- ----------------------------------------------------------------|- -7--7--7-7-7-6--6-6--6-6-6--------------------------------------|- ---------------------------7---7---7--7--7--9brbrbr-------------|- ----------------------------------------------------------------|- ----------------------------------------------------------------|
- ------------------------------------------------------------------|- ---------------------------------------------10--10-10--10-10-10--|- -------------6--6-6--6-6-6--7---7----7--7--7----------------------|- -4--4--4-4-4------------------------------------------------------|- ------------------------------------------------------------------|- ------------------------------------------------------------------|
-- -------------9--9-9--9-9-9--10--10---10-10-10---------------------|- -7--7--7-7-7---------------------------------10--10-10--10-10-10--|- ------------------------------------------------------------------|- ------------------------------------------------------------------|- ------------------------------------------------------------------|- ------------------------------------------------------------------|
(Two Seperate Guitar Parts Join Together)- ----------------------------------10--10--10-10-10-9--9-9--9-9-9--|- -7--7--7-7-7/10--10-10--10-10-10----------------------------------|- ------------------------------------------------------------------|- ------------------------------------------------------------------|- ------------------------------------------------------------------|- ------------------------------------------------------------------|
- -12--12--12-12-12--------------------|- ------------------9--10-10-10-10\----|- -------------------------------------|- -------------------------------------|- -------------------------------------|- -------------------------------------|
----------------------------------------------------------------------------
[Riff 11, Gtr 1 & 2] - [01:58] - [02:07]- ---------------------------------------------------------------|- -----------------------------------7---10--7---5/7---7---10p7--|- ---------------------------------------------------------------|- -----4---7---4---4-----7---4-----------------------------------|- ---------------------------------------------------------------|- -4-4---4---4---4---4-4---4-----0-0---0---0---0-----0---0-------|
PM ... . . . ... . ... . . . . .-- ---------------------------------------------------------------|- -----------------------------------7---10--7---5/7---7---10p7--|- ---------------------------------------------------------------|- -----4---7---4---4-----7---4-----------------------------------|- ---------------------------------------------------------------|- -4-4---4---4---4---4-4---4-----0-0---0---0---0-----0---0-------|PM ... . . . ... . ... . . . . .
- ---------------------------------------9-----------------9-----|- -----------------------------------7-------7---5/7---7-----10--|- -----------------6---------------------------------------------|- -----4---7---4---------7---4-----------------------------------|- ---------------------------------------------------------------|- -4-4---4---4---4---4-4---4-----0-0---0---0---0-----0---0-------|
PM ... . . . ... . ... . . . . .-- ---------------------------------------------------------------|- -----------------------------------7---10--7---5/7---7---10p7--|- -----------------6---------------------------------------------|- -----4---7---4---------7---4-----------------------------------|- ---------------------------------------------------------------|- -4-4---4---4---4---4-4---4-----0-0---0---0---0-----0---0-------|PM ... . . . ... . ... . . . . .
----------------------------------------------------------------------------
[Riff 12, Gtr 1 & 2] - [02:07] - [02:17]--------------------------| 2x- ----------------------------------------------------------------|- ----------------------------------------------------------------|- ---------6-------------6-----------7---11--7---6/7---7---11p7---|- -----7-------7---7---------7------------------------------------|- ----------------------------------------------------------------|- -4-4---4---4---4---4-4---4-----0-0---0---0---0-----0---0--------|
PM ... . . . ... . ... . . . . .-- ---------------------------------------------------------------|- -----------------------------------7---10--7---5/7---7---10p7--|- ---------------------------------------------------------------|- -----4---7---4---4-----7---4-----------------------------------|- ---------------------------------------------------------------|- -4-4---4---4---4---4-4---4-----0-0---0---0---0-----0---0-------|PM ... . . . ... . ... . . . . .
----------------------------------------------------------------------------
[Riff 13] - [02:17] - [02:21]- --------------------------------------------------------|- --------------------------------------------------------|- --------------------------------4-----------------------|- -6------------6---6---6---------2--------------///------|- -2--2-2-2-2-2-2-2-2-2-2-2-2-2-2-2--2-2-2-2-2-2-///------|- -2--2-2-2-2-2-2-2-2-2-2-2-2-2-2-2--2-2-2-2-2-2-///------|PM ......... . . ....... ...........
----------------------------------------------------------------------------
[Riff 14] - [02:21] - [02:40]- ---------------------------------------------------------|- ---------------------------------------------------------|- ---------------------------------------------------------|- -4--4--4-4-4-4--4-4--4-4-4-4-0--0--0-0-0-0--0-0--0-0-0-0-|- -4--4--4-4-4-4--4-4--4-4-4-4-0--0--0-0-0-0--0-0--0-0-0-0-|- -4--4--4-4-4-4--4-4--4-4-4-4-0--0--0-0-0-0--0-0--0-0-0-0-|
- ---------------------------------------------------------|- ---------------------------------------------------------|- ---------------------------------------------------------|- -4--4--4-4-4-2--2-2--2-2-2-2-2--2--2-2-2-2--2-2--2-2-2-2-|- -2--2--2-2-2-0--0-0--0-0-0-0-2--2--2-2-2-2--2-2--2-2-2-2-|- -----------------------------2--2--2-2-2-2--2-2--2-2-2-2-|
- ---------------------------------------------------------|- ---------------------------------------------------------|- ---------------------------------------------------------|- -4--4--4-4-4-4--4-4--4-4-4-4-0--0--0-0-0-0--0-0--0-0-0-0-|- -4--4--4-4-4-4--4-4--4-4-4-4-0--0--0-0-0-0--0-0--0-0-0-0-|- -4--4--4-4-4-4--4-4--4-4-4-4-0--0--0-0-0-0--0-0--0-0-0-0-|
- --------------------------------------------------------|- --------------------------------------------------------|- --------------------------------------------------------|- -4--4--4-4-4-4--4-4--4-4-4-4-4--4--4-4-4-2--4-4-4-4-----|- -2--2--2-2-2-2--2-2--2-2-2-2-4--4--4-4-4-2--4-4-4-4-----|- -----------------------------4--4--4-4-4-2--4-4-4-4-----|
[Riff 15] - [02:21] - [02:31]- ------------------------------------------------------------------------|- -10p9-10p9-12p9-10p9-12p9-10p9-12p9-10/14-15p14-15p14-17p14-15p14-19p14-|- ------------------------------------------------------------------------|- ------------------------------------------------------------------------|- ------------------------------------------------------------------------|- ------------------------------------------------------------------------|
- -----------------------------------------------------------------------|- -15p14-17p14-15----------------------------------------15--17p15-19p15-|- -----------------14--14--14-14-14/18--18-18--18-18-18------------------|- -----------------------------------------------------------------------|- -----------------------------------------------------------------------|- -----------------------------------------------------------------------|
- -14/17--17-17-16--16-16\--|- --------------------------|- --------------------------|- --------------------------|- --------------------------|- --------------------------|
[Riff 16, Gtr 1 & 2] - [02:31] - [02:40]- ----------------------9--9----9/14--14----14------17p15p14-17p15p14-|- -7----7/10--10----10------------------------------------------------|- --------------------------------------------------------------------|- --------------------------------------------------------------------|- --------------------------------------------------------------------|- --------------------------------------------------------------------|
-- --------------------------------------------------------------------|- --------------------------------------------------19p17p15-19p17p15-|- ----------------------10-10--10/14--14----14--15--------------------|- -6----6/11--11----11------------------------------------------------|- --------------------------------------------------------------------|- --------------------------------------------------------------------|
- -17p15p14-17p15p14-19p17p15-19p17p15-19p17p15-19p17p15-21--21--21-21/24-|- ------------------------------------------------------------------------|- ------------------------------------------------------------------------|- ------------------------------------------------------------------------|- ------------------------------------------------------------------------|- ------------------------------------------------------------------------|
-- -------------------------------------------------------14--14--14-14/17-|- -19p17p15-19p17p15-20p19p17-20p19p17-20p19p17-20p19p17------------------|- ------------------------------------------------------------------------|- ------------------------------------------------------------------------|- ------------------------------------------------------------------------|- ------------------------------------------------------------------------|
- -24--24-24-24-24---|- -------------------|- -------------------|- -------------------|- -------------------|- -------------------|
-- -17--17-17-17-17---|- -------------------|- -------------------|- -------------------|- -------------------|- -------------------|
---------------------------------------------------------------------------- [Riff 1] - [02:40] - [02:49]
[Riff 17, Gtr 1 & 2] - [02:49] - [02:59]- -------------------------------------------------------------------|- ---------------------------------------------------------5h7p5-----|- -------4-------------------6-----------4-------------4h6-------6---|- -----------7-----4-----------7-------------7-----6h7---------------|- -------------------5---4-------------------------------------------|- -444-4---4---4-4-----4---4-----4-444-4---4---4-4-----------------0-|
PM ..... . ... . . ....... . ... .-- -------------------------------------------------------------------|- -------------------------------------------------------------------|- -------7---6---------------------------7---6-------------6h7p6-----|- -----------------7p4-------7p4-----------------------6h7-------7---|- -----------------------7-------------------------7h9---------------|- -444-4---4---4-4-----4---4-----4-444-4---4---4-4-----------------0-|PM ..... . ... . . ....... . ... .
- -----------------------------------------------------------------9-|- -------------------------------------------------12-10h12p10-------|- -------7---11--------6h7---------------7---9h11---------------9----|- -----------------7h9-----6h7h9-------------------------------------|- -------------------------------------------------------------------|- -000-0---0---0-0---------------0-000-0---0-----0-------------------|
PM ..... . ... ....... . .-- -------------------------------------------------10--9h10p9-----12-|- -------7---10--------5h7---------------7---9h10--------------10----|- -----------------6h7-----------------------------------------------|- -----------------------------6-------------------------------------|- -------------------------7h9---------------------------------------|- -000-0---0---0-0---------------0-000-0---0-----0-------------------|PM ..... . ... ....... . .
- ---------|- -12-10---|- ------9--|- ---------|- ---------|- ---------|
-- -10-9----|- ------10-|- ---------|- ---------|- ---------|- ---------|
----------------------------------------------------------------------------
[Riff 18] - [02:59] - [03:41]- ----------|- ----------|- ----------|- -4~-------|- -4~-------|- -4~-------|
[Riff 19] - [03:03] - [03:41] - 4----------------|5x- -------4----------4----------4----------4------|- -------5----------5----------5----------5------|- -------6----------6----------6----------6------|- ----7----------7----------7----------7---------|- -----------------------------------------------|- -4----------4----------0----------0------------|
[Riff 20] - [03:10] - [03:17]- ---------------------------------------9--------------9-----|- -------10------------10------------10-------------10--------|- ----11------------11------------11-------------11-----------|- -11------------11------------11-------------11--------------|- ------------------------------------------------------------|- ------------------------------------------------------------|
[Riff 21] - [03:17] - [03:41] - 3------------------------------------------|5x- ---9-----------------9---------------------------9----12-9---------------|- ----10----------------10--12--9--------------10-----------10-12----------|- ------11--11--11--------11------------11-11----11--------------11--11----|- -11-----11--11-----11-------11-11---11-----11--------------------11--11--|- -------------------------------------------------------------------------|- -------------------------------------------------------------------------|
[Riff 22] - [03:31] - [03:41]- ------------------------------------------------------------------------|- -------------------------------7-7-7-10--10-10-10/9--9br----------------|- -----------2---2/9-9----7--7-7--------------------------------------2---|- ------------------------------------------------------------------------|- -0--0-4br-------------------------------------------------0--0-4br------|- ------------------------------------------------------------------------|
- -----------|- -----------|- -2/9-9-----|- -----------|- -----------|- -----------|
---------------------------------------------------------------------------- [Riff 8] - [03:41] - [03:45] ---------------------------------------------------------------------------- [Riff 6 & 7] - [03:45] - [04:12]
[Riff 23] -- ------------------------------------------------------------------|- ---7-5-------------7-5--------------------------------------------|- -------6---------------6------------------------------------------|- -7-------7-7-7-7-7-------7-7-7-7------------------4-4-4-4-7-7-7-7-|- ---------------------------------4-4-4-7br--7-7-7-----------------|- ------------------------------------------------------------------|
- ---------------------------------|- ---7-5-------------7-5-----------|- -------6---------------6---------|- -7-------7-7-7-7-7-------7-7-7-7-|- ---------------------------------|- ---------------------------------|
---------------------------------------------------------------------------- [Riff 8] - [04:12] - [04:21] ---------------------------------------------------------------------------- [Symbols] PM... Palm Mute notes with (...) under them AP... Alternate Pick notes with (...) under them h Hammer On p Pull Off ~ Let Ring \ Slide Down / Slide Up br Bend & Release \- Slide Down to open /// Pick Slide :D
Please rate this tab:
x1.0