August Burns Red - Thirty And Seven tab

[Thirty And Seven]
[Constellations]
[August Burns Red]

bear with me..
tabbin parts that hav 3 guitars gets kinda tricky.. especially when
im tryina match the notes up with all the guitars so its nicely in
order n easy to read.. and yes :P in most of the double guitar
parts, the notes do match upp. and in the breakdowns, every "-" is
a 16th note, excluding the first and last one. so if you can read that
then good :) it also applies to riffs that dont go past the 10th fret.
cuz then it doesnt work.. hehe. IF YA KNO WHAT I MEANN

ps. i took a look at some live vids to see where his hands were
for most of the intro, so i think its pretty accurate. check it
yurself :) now generic rant at the beginning of all my tabss:

Watch the times, some things overlap.
See how many times each riff is played (No indication means 1)
Watch if each part has one guitar or two matching.
Symbols at bottum.

Tuning: CGCFAD (Drop C or Drop D one step down)
joshuaoliveira@hotmail.com

[Riff 1] - [00:00] - [00:04]- --------------------------------|- --------------------------------|- --------------------------------|- -0~----------------------///----|- -0~----------------------///----|- -0~----------------------///----|
[Riff 2] - [00:04] - [00:34]- -----------------------------------------------------------------|- -----------------------------------------------------------------|- -----------------------------------------------------------------|- -------7---5---------------------------------------3p2---------5-|- -8-------------7/8---8---8---3---5p0-----------3h5-----3-----7---|- ---0-0---0---0-----0---0---0---0-----0-0-0-0-0-----------5h8-----|PM ... . . . . . . .........
- ---------------------------------------------------------6---6---|- -----------------------------------------------6-----------------|- -----------------------------5--/7-----7---7-----7---7-----------|- ---------------7p3---3---3---------5-5---5---5-----5---5---5---5-|- -8p5---8---8-----------------------------------------------------|- -----0---0---0-----0---0---0-------------------------------------|PM . . . . . . ... . . . . . .
- -----------------------------------------------------------------|- -----------------------------------------------------------------|- -----------------------------------------------------------------|- -7-------------0h3h5p3p0-2h3h5---------------------3p2---------5-|- -------5---5-------------------3h5p0-----------3h5-----3-----7---|- ---0-0---0---0-----------------------0-0-0-0-0-----------5h8-----|PM ... . . .........
- -----------------------------------------------------------------|- -----------------------------------------------6---------5h6-----|- -----------------------------5--/7-----7---7-----7---7-------7---|- ---------------7p3---3---3---------5-5---5---5-----5---5---------|- -8p5---8---8-----------------------------------------------------|- -----0---0---0-----0---0---0-------------------------------------|PM . . . . . . ... . . . .
- --------------------------------------------------------------|- ----------------------------------------------------------10--|- -3-----3---3---7-7---7---7---3---2h3p2---------------7h10-----|- ---5-5---5---5-----5---5---5---5-------3p2h3------------------|- ---------------------------------------------3/5-5/8----------|- --------------------------------------------------------------|PM ... . . . . . .
- -------------------8/10--------[10~]---------|- -------11p10h10p11---------------------------|- -10/12---------------------------------------|- ---------------------------------------------|- ---------------------------------------------|- ---------------------------------------------|
- -----------------------------------------------|- -----------------------------------------------|- -10h12p10----10h14p12p10-9h10h12----9h10-------|- ----------12---------------------10------12p10-|- -----------------------------------------------|- -----------------------------------------------|
[Riff 3] - [00:24] - [00:34]- ---------|- ---6---6-|- ---7---7-| Play for 2 bars each behind riff 2- -8-7-8-7-| i dont think its strummed. but you can if you- -5-5-5-5-| think so!- -5---5---|
[Riff 4] - [00:34] - [00:44]- -------------------------------------17h18-15h17-13h15-|- -------------------13-15-15/18-17-18-------------------|- -10-12-12/15-14-15-------------------------------------|- -------------------------------------------------------|- -------------------------------------------------------|- -------------------------------------------------------|
- ----------------------------17h18p17-------------------|- -------------------13-15/18----------18----------18\17-|- -10-12-12/15-14-15----------------------17----17-------|- -------------------------------------------19----------|- -------------------------------------------------------|- -------------------------------------------------------|
- -------------------------------------17h18-15h17-13h15-|- -------------------13-15-15/18-17-18-------------------|- -10-12-12/15-14-15-------------------------------------|- -------------------------------------------------------|- -------------------------------------------------------|- -------------------------------------------------------|
- ---------------------------------------------13-|- -10h13---------------------------------13h15----|- -------9h10-------------------10h12/14----------|- ------------10h12-------10h12-------------------|- ------------------10h12-------------------------|- ------------------------------------------------|
[Riff 3, Guitar 1 & 2] - [00:44] - [00:54]- -8--------8---------8---------8/13~------8--------8------------|- ----10--------10--------10------------------10--------10----10-|- -------10--------10--------10------------------10--------10----|- ---------------------------------------------------------------|- ---------------------------------------------------------------|- ---------------------------------------------------------------|
-- ---------------------------------------------------------------|- -10-------10--------10--------10/15~-----10-------10-----------|- ----10--------10--------10------------------10--------10----10-|- -------12--------12--------12------------------12--------12----|- ---------------------------------------------------------------|- ---------------------------------------------------------------|
- -----------------------------------------------------------------|- ----------------8h10-11p10----11-p10----11-p10-------------------|- --------------7------------10--------10--------10h12-9h10--------|- -7----7-8--10----------------------------------------------10h12-|- ---10------------------------------------------------------------|- -----------------------------------------------------------------|
PM ..............-- -----------------------------------------------------------------|- -----------------------------------------------------------------|- ----------------9h10-12p10----12-p10----12-p10-------------------|- -----------7--8------------12--------12--------12h14-10h12-------|- -8-7--8-10-------------------------------------------------12h13-|- -----------------------------------------------------------------|PM ..............
- ---------------------------------------|- -10h11p10------------------------------|- ----------10p9-12p10p9-7h9h10---9h10-7-|- ------------------------------7--------|- ---------------------------------------|- ---------------------------------------|
-- ---------------------------------------|- -10h11p10------------------------------|- ----------10p9-12p10p9------7---5h7----|- -----------------------8h10------------|- ------------------------------8------5-|- ---------------------------------------|
[Riff 5] - [00:34] - [00:54]- ---------------|- -3-6-3---3-6-3-|- -3-7-3---3-7-3-|- -3-7-3-7-3-7-3-| strum for 2 bars each behind riff 4- -1-5-1-3-1-5-1-|- -------3-------|
----------------------------------------------------------------------------
[Riff 6,Guitar 1 & 2] - [00:54] - [01:05]---------------------------| 2x- ------------------------------------------------------------------|- ------------------------------------------------------------------|- ------------------------------------------------------------------|- ---------------------------------------------------3p2---5--------|- -0---0---000---0---000---000000000-000-0-000---0-5-----4---1h4p0--|- -0---0---000---0---000---000000000-000-0-000---0------------------|
PM ................................................. .-- -----------------------------------------------------------------|- -----------------------------------------------------------------|- -----------------------------------------------------------------|- -----7-8-7-----------7-8-7-----------7-8-7---------7p5---8-------|- -5-8-------8-7-4-5-8-------8-7-4-5-8-------8-7-4-8-----7---5h7p4-|- -----------------------------------------------------------------|PM . .
[Riff 7a] - [01:05] - [01:10]- ------------------------------------------------------------------|- ------------------------------------------------------------------|- --------(Let Notes Ring Out)--------------------------------------|- -------------------------------------------------8---5---7---[7~]-|- -0---0---000---0---000---000000000-000-0-000---0------------------|- -0---0---000---0---000---000000000-000-0-000---0---00--00--00-----|PM ............................................... .. .. ..
[Riff 7b] - [01:05] - [01:10]- --------------------------------------------------------------------------|- --------------------------------------------------------------------------|- -----10-11-10-----------10-11-10-----------10-11-10-------7-------6--[6~]-|- -7-10--------10-9-6-7-10--------10-9-6-7-10--------10-9-6-----8-----------|- --------------------------------------------------------------------------|- ------------------------------------------------------------00--00--00----|PM .. .. ..
[Riff 8a] - [01:10] - [01:16]- -----------------------------------------------------------------|- -----------------------------------------------------------------|- -----------------------------------------------------------------|- -------------------------------------------------8---5---7-------|- -0---0---000---0---000---000000000-000-0-000---0-------------7\--|- -0---0---000---0---000---000000000-000-0-000---0-----------------|PM .........................................................AP .........
[Riff 8b, Guitar 1 & 2] - [01:10] - [01:16]- --------------------------------------------------------------------------|- --------------------------------------------------------------------------|- -----10-11-10-----------10-11-10-----------10-11-10-----------------------|- -7-10--------10-9-6-7-10--------10-9-6-7-10--------10-9-6-12--8---11--7\--|- --------------------------------------------------------------------------|- --------------------------------------------------------------------------|
PM ..........AP ..........-- --------------------------------------------------------------------------|- -----6--8--6------------6--8--6------------6--8--6------------------------|- ---7---------7--6-----7---------7--6-----7---------7--6-------------------|- -7----------------7-7----------------7-7----------------7-----------------|- --------------------------------------------------------------------------|- --------------------------------------------------------------------------|
----------------------------------------------------------------------------
[Riff 9, Guitar 1 & 2] - [01:16] - [01:21]- -----------------------------------------------------------------|- -----------------------------------------------------------------|- -----------------------------------------------------------------|- -0~------------------------------///-----------------------------|- -0~------------------------------///-----------------------------|- -0~------------------------------///-----------------------------|
-- -----------------------------------------------------------------|- -----------------------------------------------------------------|- -----------------------------------------------------------------|- -0~----------------------------------------------///-------------|- -0~----------------------------------------------///-------------|- -0~----------------------------------------------///-------------|
----------------------------------------------------------------------------
[Riff 10] - [01:21] - [01:31]- ----------------------------------------------|- ----------------------------------------------|- ----------------------------------------------|- -----5h7p0-5h7p0-----7h12p0-7h12p0-8h12p0-----|- ----------------------------------------------|- -000-------------000----------------------000-|PM ... ... ...
- ----------------------------------------------|- ----------------------------------------------|- -----------------------------------6h7p6-[7~]-|- -----5h7p0-5h7p0-----8h12p0-7h12p0------------|- ----------------------------------------------|- -000-------------000--------------------------|PM ... ...
- ----------------------------------------------|- ----------------------------------------------|- ----------------------------------------------|- -----5h7p0-5h7p0-----7h12p0-7h12p0-8h12p0-----|- ----------------------------------------------|- -000-------------000----------------------000-|PM ... ... ...
- ----------------------------------------------|- ----------------------------------------------|- ---------------------6h7p6--------------------|- -----5h7p0-5h7p0-----------7-------3-0~-------|- -----------------------------0h3h7---0~-------|- -000-------------000-----------------0~-------|PM ... ...
[Riff 11] - [01:31] - [01:42]- -------------------------------------------|- -------------------------------------------|- -------------------------------------------|- -----3h7p0-3h7p0-----5h8p0-5h8p0-3h7p0-----|- -------------------------------------------|- ---0-------------000-------------------000-|PM . ... ...
- -------------------------------------------|- -------------------------------------------|- ---------------------------------6h7p6-----|- -----3h7p0-3h7p0-----5h8p0-3h7p0-------7---|- -------------------------------------------|- -000-------------000-----------------------|PM ... ...
- -------------------------------------------|- -------------------------------------------|- -------------------------------------------|- -----3h7p0-3h7p0-----5h8p0-5h8p0-3h7p0-----|- -------------------------------------------|- -000-------------000-------------------000-|PM ... ... ...
- -------------------------------------------|- -------------------------------------------|- ---------------------------------6h7p6-----|- -----3h7p0-3h7p0-----5h8p0-3h7p0-------7---|- -------------------------------------------|- -000-------------000-----------------------|PM ... ...
----------------------------------------------------------------------------
[Riff 12a] - [01:42] - [01:53]- -----------------------------------------|- -----------------------------------------|- -----9h10p9--------------9h10p9----------|- -7-7--------12-12-12-7-7--------12-12-12-|- -----------------------------------------|- -----------------------------------------|PM ... ...
- ------------------------------------------|- ---------------------11-10-8--------------|- -9-9-12-12-9-9-10-10---------10-9----10-9-|- ----------------------------------11------|- ------------------------------------------|- ------------------------------------------|
- ------------------------------------|- ------------------------------------|- -------------------10---------------|- ----8-7-8----8-7-8----8-7-8-----5-7-|- -10-------10----------------7-8-----|- ------------------------------------|
- -----------------10-6-------------|- ----------------------8-5-6---5---|- -------------6-9------------7---6-|- -------7-5-8----------------------|- -7-5-4----------------------------|- ----------------------------------|
[Riff 12b] - [01:42] - [01:53]- -----------------------------------------------------------------|- -----------------------------------------------------------------|- -2-2-2-2-2-2-2-2-2-2-2-2-2-2-2-2-0-0-0-0-0-0-0-0-0-0-0-0-0-0-0-0-|- -3-3-3-3-3-3-3-3-3-3-3-3-3-3-3-3-2-2-2-2-2-2-2-2-2-2-2-2-2-2-2-2-|- -5-5-5-5-5-5-5-5-5-5-5-5-5-5-5-5-4-4-4-4-4-4-4-4-4-4-4-4-4-4-4-4-|- -----------------------------------------------------------------|PM ...............................................................
- -----------------------------------------------------------------|- -----------------------------------------------------------------|- ---------0---------------0---------------0-----------------------|- -3-3-3-3-3-3-3-3-3-3-3-3-3-3-3-3-2-2-2-2-2-2-2-2-2-2-2-2-2-2-2-2-|- -1-1-1-1-1-1-1-1-1-1-1-1-1-1-1-1-0-0-0-0-0-0-0-0-0-0-0-0-0-0-0-0-|- -----------------------------------------------------------------|PM ....... ............. ............. .....................
----------------------------------------------------------------------------
[Riff 13, Guitar 1 & 2] - [01:53] - [02:04]--------------------------| 2x- -------------------------------------------------------------------|- -------------------------------------------------------------------|- -------------------------------------------------------------------|- -------------------------------------------------------------------|- -000-0-0-0-0-000-0-0-0-0-000-000-000-0-0-000-000-0-0-0-0-00000000--|- -000-0-0-0-0-000-0-0-0-0-000-000-000-0-0-000-000-0-0-0-0-00000000--|
PM ................................................................-- ------------------------------------------------------------------|- ------------------------------------------------------------------|- ------------------------------------------------------------------|- ------------------------------------------------------------------|- -000---------000---------000-000-000-----000-000---------00000000-|- -000---------000---------000-000-000-----000-000---------00000000-|PM ................................................................
----------------------------------------------------------------------------
[Riff 14, Guitar 1 & 2] - [02:04] - [02:06]- ---------------------------------|- ---------------------------------|- -----------------------------6---|- -8---5h7-----------8p7---7-------|- -----------7---8-------8---------|- ---0-----0---0---0---------0-----|
PM . . . . . .-- ---------------------------------|- ---------------------------------|- ---------------------------------|- -5---2h3-----------5p3p0-----7---|- -----------3---5---------7-------|- ---0-----0---0---0---------0-----|PM . . . . .
----------------------------------------------------------------------------
[Riff 15] - [02:06] - [02:15]- --------------------------------------|- --------------------------------------|- -7-----10---9-------------------------|- ----------------10h12---12---12---7---|- --------------------------------------|- ---0-0----0---0-------0----0----0---0-|PM ... . . . . . .
- ------------------------------------------|- ------------------------------------------|- ----------------------10p9-------------12-|- -12p0-----------10h12------10-------12----|- ------------------------------10h13-------|- ------0-0-0-0-0---------------------------|PM .........
- ------------------------------------|- ------------------------------------|- ------------------------------------|- -12p0---10---12---7h8---8---8---5---|- ------------------------------------|- ------0----0----0-----0---0---0---0-|PM . . . . . . .
- -------------------------6---6---|- ---------------6-----------------|- -7-----7---7-----7---7-----------|- ---5-5---5---5-----5---5---5---5-|- ---------------------------------|- ---------------------------------|PM ... . . . . . .
----------------------------------------------------------------------------
[Riff 16, Guitar 1 & 2] - [02:15] - [02:25]- -----------------------------------------|- -----------------------------------------|- -7------10---9---------------------------|- ------------------10h12---12---12---7----|- -----------------------------------------|- ----0-0----0----0-------0----0----0----0-|
PM ... . . . . . .-- -----------------------------------------|- -----------------------------------------|- -10-----14---12--------------------------|- ------------------14h15---15---15---12---|- -----------------------------------------|- ----0-0----0----0-------0----0----0----0-|PM ... . . . . . .
- -------------------------------------------|- -------------------------------------------|- ----------------------10p9--------------12-|- -12p0-----------10h12-------10-------12----|- -------------------------------10h13-------|- ------0-0-0-0-0----------------------------|
PM .........-- -------------------------------------------|- -------------------------------------------|- ----------------------14p12-------------15-|- -15p0-----------14h15-------14-------15----|- -------------------------------13h17-------|- ------0-0-0-0-0----------------------------|PM .........
- ----------------------------------------|- ----------------------------------------|- ----------------------------------------|- -12p0---10---12----7h8----8----8----5---|- ----------------------------------------|- ------0----0----0-------0----0----0---0-|
PM . . . . . . .-- ----------------------------------------|- ----------------------------------------|- ----------------------------------------|- -15p0---14---15---10h12---12---12---8---|- ----------------------------------------|- ------0----0----0-------0----0----0---0-|PM . . . . . . .
- ----------------------------------------|- ------------------6------------5h6------|- -7------7----7-------7----7---------7---|- ----5-5----5----5-------5----5----------|- ----------------------------------------|- ----------------------------------------|
PM ... . . . .-- ----------------------------------------|- ------------------10-------------10-----|- -10-----10---10------10---10---9----10--|- ----8-8----8----8-------8----8----------|- ----------------------------------------|- ----------------------------------------|PM ... . . . .
----------------------------------------------------------------------------
[Riff 17, Guitar 1 & 2] - [02:25] - [02:35]- ---------------------------------|- ---------------------------------|- ---------------------------------|- -5-----------------------7-------|- -----------------8---------------|- ---------------------------------|
AP .........................-- ---------------------------------|- ---------------------------------|- --------7----------------10------|- -8-------------------------------|- ---------------------------------|- ---------------------------------|AP ..........................
----------------------------------------------------------------------------
[Riff 18, Guitar 1 & 2] - [02:35] - [02:45]- -----------------------------------------------------------------|- -----------------------------------------------------------------|- -----------------------7-----------------------------------------|- -8-----8-----7---8---------5-------------------7---------------7-|- -----------------------------------------8\3/5-----------8\3/5---|- ---5-5---5-5---5---5-5---5---5-5-000-000---------000-000---------|
PM ... ... . ... . ........... .......-- ------------------------------------------------------------------|- -----------------------6-----------------------6---------------5--|- -7-----7-----5---7------------------------------------------------|- ---------------------------8-------------0h2h3-----------0h2h3----|- ------------------------------------------------------------------|- ---5-5---5-5---5---5-5---5---5-5-000-000---------000-000----------|PM ... ... . ... . ........... .......
- -----------------------------------------------------|- -----------------------------------------------------|- -----------------------------------------------------|- -5-----5---------5-----8---7-------------------------|- -------------8-----------------000000000-0-0-0-------|- ---5-5---5-5---5---5-5---5-----000000000-0-0-0-------|
PM ... ... . ... . ...............-- -----------------------------------------------------|- ---------------------------6-------------------------|- -----------------------7-----------------------------|- -8-----8-----7---8-----------------------------------|- -------------------------------000000000-0-0-0-------|- ---5-5---5-5---5---5-5---5-----000000000-0-0-0-------|PM ... ... . ... . ...............
----------------------------------------------------------------------------
[Riff 19] - [02:45] - [02:53]-----------------------| 2x- --------------------------------------------------|- --------------------------------------------------|- --------------------------------------------------|- --------------------------------------------------|- -000000000-0-0-0-----00000---000-000---000-0-0-0--|- -000000000-0-0-0-----00000---000-000---000-0-0-0--|PM ...............................................
----------------------------------------------------------------------------
[Riff 20a] - [02:53] - [03:04]--------------------------------------| 2x- ------------------------------------------------------------------|- ------------------------------------------------------------------|- ------------------------------------------------------------------|- ------------------------------------------------------------------|- -000000000-0-0-0-----00000---000-000---000-0-0-0---00000-0-00000--|- -000000000-0-0-0-----00000---000-000---000-0-0-0---00000-0-00000--|PM ...............................................................
[Riff 21b, Guitar 1 & 2] - [02:53] - [03:04]- ---------------------------------|- ---------------------------------|- ---------------------------------|- -----------------3---------------|- -5-------1---0-----------5---4---|- ---------------------------------|
AP .............................-- ---------------------------------|- ---------------------------------|- ---------------------------------|- -7-------------------------------|- -------------------------8---7---|- ---------------------------------|AP .............................
----------------------------------------------------------------------------
[Riff 22] - [03:04] - [03:18]- ---------|- ---------|- ---------|- -0~------|- -0~------|- -0~------|
---------------------------------------------------------------------------- [Symbols] h Hammer On p Pull Off / Slide Up \ Slide Down PM... Palm Mute notes with (...) under them [ ] Pinch Harmonic ~ Let Ring /// Pick Slide AP... Alternate Pick notes with (...) under them :D
Tap to rate this tab
 
# A B C D E F G H I J K L M N O P Q R S T U V W X Y Z