August Burns Red – Crusades tab

[Crusades]
[Constellations]
[August Burns Red]

As requested by jturak515 !

longest tab of my life :| ..

Watch the times, some things overlap.
See how many times each riff is played (No indication means 1)
Watch if each part has one guitar or two matching.
Symbols at bottum.

[Riff 1, Guitar 1 & 2] - [00:00] - [00:10]--------------------------| 2x- ------------------------------------------------------------------|- -6~------------------------------8~--------------8----------------|- -7~------------------------------5~--------------------5----------|- -7~------------------------------5~--------------------------5----|- ------------------------------------------------------------------|- ------------------------------------------------------------------|
-- -----------------------------------------------------------------|- -----------------------------------------------------------------|- -2-2-2-2-2-2-2-2-2-2-2-2-2-2-2-2---------------------------------|- -3-3-3-3-3-3-3-3-3-3-3-3-3-3-3-3-5-5-5-5-5-5-5-5-5-5-5-5-5-5-5-5-|- -5-5-5-5-5-5-5-5-5-5-5-5-5-5-5-5-3-3-3-3-3-3-3-3-3-3-3-3-3-3-3-3-|- -----------------------------------------------------------------|PM ...............................................................
----------------------------------------------------------------------------
[Riff 2, Guitar 1 & 2] - [00:10] - [00:20]--------------------------| 2x- ------------------------------------------------------------------|- ------------------------------------------------------------------|- ------------------------------------------------------------------|- -7-7-7-7-7-7-7-7-7-7-7-7-7-7-7-7-5-5-5-5-5-5-5-5-5-5-5-5-5-5-5-5--|- -5-5-5-5-5-5-5-5-5-5-5-5-5-5-5-5-3-3-3-3-3-3-3-3-3-3-3-3-3-3-3-3--|- ------------------------------------------------------------------|
-- -----------------------------------------------------------------|- -----------------6-6---5---6p5-------------------8-8---8-----8---|- -------------7-7---------------7---------------------5---5-5---5-|- -----7-7-------------7---7-------5-5---------5-5-----------------|- -5-5-----5-5-------------------------8-8-7-7---------------------|- -----------------------------------------------------------------|PM ... ... . . ............... . ... .
----------------------------------------------------------------------------
[Riff 3a] - [00:20] - [00:31]- -------------------------------------|- -------------------------------------|- -------------5---7---/10--------12---|- -0---3---5-----------------10--------|- -------------------------------------|- -------------------------------------|AP .................................
[Riff 3b] - [00:20] - [00:31]- -5-----5-----5---8-----8-----8---|- ---6-----6-----6---6-----6-----6-|- -----7-----7---------7-----7-----|- ---------------------------------|- ---------------------------------|- ---------------------------------|
- -8------8------8----12------12------12----|- ---10-----10-----10----10------10------10-|- ------9------9------------9-------9-------|- ------------------------------------------|- ------------------------------------------|- ------------------------------------------|
- -13-------13-------15----17-------17-------17----|- ----15-------15-------14----15-------15-------15-|- -------14-------14-------------14-------14-------|- -------------------------------------------------|- -------------------------------------------------|- -------------------------------------------------|
- -8------8------8----12------12------12----|- ---10-----10-----10----10------10------10-|- ------9------9------------9-------9-------|- ------------------------------------------|- ------------------------------------------|- ------------------------------------------|
----------------------------------------------------------------------------
[Riff 4a] - [00:31] - [00:39]- ---------------|- ---------------|- ---------------| strum for one bar each.- -7-7-5-5-12-11-|- -5-5-3-3-8--7--|- ---------8--7--|
[Riff 4b] - [00:31] - [00:39]- -5-----5-----5---8-----8-----8---|- ---6-----6-----6---6-----6-----6-|- -----7-----7---------7-----7-----|- ---------------------------------|- ---------------------------------|- ---------------------------------|
- -8------8------8----12------12------12----|- ---10-----10-----10----10------10------10-|- ------9------9------------9-------9-------|- ------------------------------------------|- ------------------------------------------|- ------------------------------------------|
- -10-------10-------10------------------------|- ----11-------11-------11------8h10----10p8---|- -------10-------10-------9h10------10------9-|- ---------------------------------------------|- ---------------------------------------------|- ---------------------------------------------|
----------------------------------------------------------------------------
[Riff 5] - [00:39] - [00:42]- ---------------------------------|- ---------------------------------|- ---------------------------------|- -----------------------------7~--|- -000000000---------0-000-000-7~--|- -000000000---------0-000-000-7~--|PM ...........................
----------------------------------------------------------------------------
[Riff 6, Guitar 1 & 2] - [00:42] - [01:01]----------------------------------| 2x- --------------------------------------------------------------------------|- --------------------------------------------------------------------------|- ----------------------------------------------------10p9-------12p10p9----|- -------------------------7p0-----------------------------12p10------------|- -----5---7h8-------------------------8---7h8h10---------------------------|- -0-0---0-----0-0-000-000-----0-0-0-0---0--------0-0--------------------8--|
PM ... . ........... ....... . ... .-- -------------------------------------------------------------------------|- ----------------------------------------------------10p8-------11p10p8---|- ---------------------------------------------------------10p9------------|- -------------------------7p0---------------------------------------------|- -----5---7h8-------------------------8---7h8h10--------------------------|- -0-0---0-----0-0-000-000-----0-0-0-0---0--------0-0--------------------8-|PM ... . ........... ....... . ... .
- ----------------------------------------------------------------------|- ------------------------------------------------------------------8---|- ----------------------------------------------------9--------10-------|- --------------------------------------------8---7-------11------------|- -8---8---12p8---7h8---10---12---8---7---8-----------------------------|- ---8---8------8-----8----8----8---8---7---7---7---7---7----7----7---7-|
PM . . . . . . . . . . . . . . .-- ----------------------------------------------------------------------|- ------------------------------------------------------------------8---|- ----------------------------------------------------9--------10-------|- --------------------------------------------8---7-------11------------|- -8---8---12p8---7h8---10---12---8---7---8-----------------------------|- ---8---8------8-----8----8----8---8---7---7---7---7---7----7----7---7-|PM . . . . . . . . . . . . . . .
----------------------------------------------------------------------------
[Riff 7] - [01:01] - [01:02]- -------------------------|- -------------------------|- -------------------------|- -------------------------|- -000000000---000000000---|- -000000000---000000000---|PM .....................
----------------------------------------------------------------------------
[Riff 8a] - [01:02] - [01:20]-----------------------------| 4x- --------------------------------------------------------|- --------------------------------------------------------|- --------------------------------------------------------|- --------------------------------------------------------|- -000000000-------0-000-000-000-000000000---000000000----|- -000000000-------0-000-000-000-000000000---000000000----|PM ...................................................
[Riff 8b] - [01:20] - [01:22]- -----------------|- -----------------|- -----------------|- -----------------|- -000000000---0---|- -000000000---0---|PM .............
[Riff 9a] - [01:11] - [01:22]-----------------------| 3x- -17p13p10-13p10-13p10-16p10h12-16p12-16p12p10h12--|- --------------------------------------------------|- --------------------------------------------------|- ----------(play 3 x then end with below riff)-----|- --------------------------------------------------|- --------------------------------------------------| T T T T T T
- -17p13p10-13p10-13p10-16p10h12-16p12-16p12p10----|- -------------------------------------------------|- -------------------------------------------------|- -------------------------------------------------|- -------------------------------------------------|- -------------------------------------------------| T T T T T T
[Riff 9b] - [01:17] - [01:22]- ----------------------------------------------|- -18p15p10-15p10-15p9-17p9h15-17p15-17p15p9h15-|- ----------------------------------------------|- ----------------------------------------------|- ----------------------------------------------|- ----------------------------------------------| T T T T T T
- ----------------------------------------------|- -18p15p10-15p10-15p9-17p9h15-17p15-17p15p10---|- ----------------------------------------------|- ----------------------------------------------|- ----------------------------------------------|- ----------------------------------------------| T T T T T T
rr messy.. i dont wanna type it all out! my gp will help if its accepted. its all there if you kno how to read it... times help.. ----------------------------------------------------------------------------
[Riff 10, Guitar 1 & 2] - [01:22] - [01:31]- -----------------------------------------------------------------|- -----------------------------------------------------------------|- -------------------------------------------------9-9---10--------|- -3p0-------------5h7p5-------5h7-7p0-----------------------7-----|- -----------------------7p5h8-------------------------------------|- -----000-0-000-0---------------------000-0-000-0-----0---0---0-0-|
PM ........... ........... . . ...-- -----------------------------------------------------------------|- -----------------------------------------------------------------|- -------------------------------------------------9-9---10--------|- -7p0-------------5h7p5-------5h7-7p0-----------------------7-----|- -----------------------7p5h8-------------------------------------|- -----000-0-000-0---------------------000-0-000-0-----0---0---0-0-|PM ........... ........... . . ...
- -----------------------------------------------------------------|- -----------------------------------------------------------------|- ------------------------------------------------10p7h9-----7-----|- -3p0-------------5h7p5-------5h7-7p0-------------------7h8---8p7-|- -----------------------7p5h8-------------------------------------|- -----000-0-000-0---------------------000-0-000-0-----------------|
PM ........... ...........-- -----------------------------------------------------------------|- -----------------------------------------------------------------|- ------------------------------------------------10p7h9-----7-----|- -7p0-------------5h7p5-------5h7-7p0-------------------7h8---8p7-|- -----------------------7p5h8-------------------------------------|- -----000-0-000-0---------------------000-0-000-0-----------------|PM ........... ...........
----------------------------------------------------------------------------
[Riff 11, Guitar 1 & 2] - [01:31] - [01:40]- -------------------------------------------------------------------------|- -------------------------------------------------------------------------|- -10--------------10h12p10--------10h12-10--------------9--9----10--------|- ---12--------------------12p10h14--------12------------------------7-----|- -------------------------------------------------------------------------|- -----000-0-000-0---------------------------000-0-000-0-------0---0---0-0-|
PM ........... ........... . . ...-- -------------------------------------------------------------------------|- -10--------------10h11p10--------10h11-10----------------------10--------|- ---10--------------------10p9h12---------10------------12-12-------------|- -------------------------------------------------------------------12----|- -------------------------------------------------------------------------|- -----000-0-000-0---------------------------000-0-000-0-------0---0---0-0-|PM ........... ........... . . ...
- -----------------------------------------------------------------------|- -----------------------------------------------------------------------|- -10--------------10h12p10--------10h12-10-------------10p7h9-----7p6---|- ---12--------------------12p10h14--------12------------------7h8-------|- -----------------------------------------------------------------------|- -----000-0-000-0---------------------------000-0-000-0-----------------|
PM ........... ...........-- -----------------------------------------------------------------------|- -10--------------10h11p10--------10h11-10------------------------------|- ---10--------------------10p9h12---------10----------------------------|- -----------------------------------------------------------------------|- -------------------------------------------------------8p5h7-0h1-5p4---|- -----000-0-000-0---------------------------000-0-000-0-----------------|PM ........... ...........
----------------------------------------------------------------------------
[Riff 12, Guitar 1 & 2] - [01:40] - [01:51]-------------------------| 2x- ------------------------------------------------------------------|- ------------------------------------------------------------------|- -2-2-2-2-2-2-2-2-2-2-2-2-2-2-2-2----------------------------------|- -3-3-3-3-3-3-3-3-3-3-3-3-3-3-3-3-5-5-5-5-5-5-5-5-5-5-5-5-5-5-5-5--|- -5-5-5-5-5-5-5-5-5-5-5-5-5-5-5-5-3-3-3-3-3-3-3-3-3-3-3-3-3-3-3-3--|- ------------------------------------------------------------------|
PM ...............................-- -----------------------------------------------------------------|- -----------------6-6---5---6p5-------------------8-8---8-----8---|- -------------7-7---------------7---------------------5---5-5---5-|- -----7-7-------------7---7-------5-5---------5-5-----------------|- -5-5-----5-5-------------------------8-8-7-7---------------------|- -----------------------------------------------------------------|PM ... ... . . ............... . ... .
----------------------------------------------------------------------------
[Riff 13a] - [01:51] - [02:00]- ---------------|- ---------------|- -2-2-----------| strum for one bar each.- -3-3-5-5-12-11-|- -5-5-3-3-8--7--|- ---------8--7--|
[Riff 13b] - [01:51] - [02:00]- -1-----1-----1---5-----5-----5---|- ---3-----3-----3---6-----6-----6-|- -----2-----2---------7-----7-----|- ---------------------------------|- ---------------------------------|- ---------------------------------|
- -8------8------8----12------12------12----|- ---10-----10-----10----10------10------10-|- ------9------9------------9-------9-------|- ------------------------------------------|- ------------------------------------------|- ------------------------------------------|
- -10-------10-------10------------------------|- ----11-------11-------11------8h10----10p8---|- -------10-------10-------9h10------10------9-|- ---------------------------------------------|- ---------------------------------------------|- ---------------------------------------------|
----------------------------------------------------------------------------
[Riff 14] - [02:00] - [02:03]- ---------------------------------|- ---------------------------------|- ---------------------------------|- -----------------------------7~--|- -0-0-0-0-0-0-0-0-3-3-3-3-7-7-7~--|- -0-0-0-0-0-0-0-0-3-3-3-3-7-7-7~--|PM ...........................
----------------------------------------------------------------------------
[Riff 15, Guitar 1 & 2] - [02:03] - [02:06]- -----------------------------------------------------------|- -----------------------------------------------------------|- -----------------------------------------------------------|- -----------------------------------------------------------|- -0-------------0-------------0---5---7p0----0---5---7p0----|- -0-------------0---------------0---0------0---0---0------0-|
PM ............... . . . . . .-- -----------------------------------------------------------|- -----------------------------------------------------------|- -----------------------------------------------------------|- -----------------------------------------------------------|- -0---5---7p0---0---5---7p0---0---8---10p0---0---8---10p0---|- ---0---0-----0---0---0-----0---0---0------0---0---0------0-|PM . . . . . . . . . . . .
----------------------------------------------------------------------------
[Riff 16] - [02:06] - [02:11]- ---------------------------------------------------------------------|- ---------------------------------------------------------------------|- ---------------------------------------------------------------------|- ---------------------------------------------------------------------|- -7---7---8p10p7-7---7---7h8h10p8p7-7---7---8h10p7-7---7---7h8h10p8p7-|- ---7---7----------7---7--------------7---7----------7---7------------|PM . . . . . . . .
----------------------------------------------------------------------------
[Riff 17, Guitar 1 & 2] - [02:11] - [02:15]- -----------------------------------------------------------|- -----------------------------------------------------------|- -----------------------------------------------------------|- -----------------------------------------------------------|- -0---5---7p0---0---5---7p0---0---5---7p0----0---5---7p0----|- ---0---0-----0---0---0-----0---0---0------0---0---0------0-|
PM . . . . . . . . . . . .-- -----------------------------------------------------------|- -----------------------------------------------------------|- -----------------------------------------------------------|- -----------------------------------------------------------|- -0---5---7p0---0---5---7p0---0---8---10p0---0---8---10p0---|- ---0---0-----0---0---0-----0---0---0------0---0---0------0-|PM . . . . . . . . . . . .
----------------------------------------------------------------------------
[Riff 18] - [02:15] - [02:19]- --------------------------------------------------------------------|- --------------------------------------------------6p5---------------|- ------------------------------------------------------7p6-7p6-------|- --------------------------------------------------------------8p7---|- -7---7---8p10p7-7---7---7h8h10p8p7-7---7---8h10-------------------4-|- ---7---7----------7---7--------------7---7------7-------------------|PM . . . . . . .
----------------------------------------------------------------------------
[Riff 19] - [02:19] - [02:37]-----------------------------| 4x- --------------------------------------------------------|- --------------------------------------------------------|- --------------------------------------------------------|- --------------------------------------------------------|- -0000--0000--0--0000--0000--0000--0000--0--0000--0000---|- -0000--0000--0--0000--0000--0000--0000--0--0000--0000---|PM ....................................................
----------------------------------------------------------------------------
[Riff 20a] - [02:29] - [02:33]- ---------------------------------------------------|- ---------------------------------------------------|- ---------------------------------------------------|- ---------------------------------------------------|- ---------------------------------------------0000--|- -0-7b--0-0-7b--0-7b--0-0-0-7b--0-0-7b--0-7b--0000--|PM . ... . ..... ... . ....
[Riff 20b] - [02:33] - [02:37]- ---------------------------------------------------|- ---------------------------------------------------|- ---------------------------------------------------|- ---------------------------7b------7b----7b--------|- ---5b------5b----5b--------------------------------|- -0-----0-0-----0-----0-0-0-----0-0-----0-----------|PM . ... . ..... ... .
----------------------------------------------------------------------------
[Riff 21] - [02:37] - [02:50]- -------------------------------------|- -------------------------------------|- -------------------------------------|- -------------0~----------------------|- -0000--0000--0~----------------------|- -0000--0000--0~----------------------|PM ..........
---------------------------------------------------------------------------- this part is probably definately gonna change over the next lil bit as i get picky n figure the actual chords out :P this is it for now thoo i tried to get the lil transition between chords right ahaha if you dont like it just look at the chords n ignore the last bit of each bar.. just play with the chords n i think you'll get it :P they're listed at the end of this bit haha
[Riff 22, Guitar 1 & 2] - [02:43] - [03:00]- -1---1-1---1-1p0-|- -3---3-3---3-3---|- -2---2-2---2-2---|- -0---0-0---0-0---|- -----------------|- -----------------|
-- -1---1-1---1-1p0-|- -3---3-3---3-3---|- -2---2-2---2-2---|- -0---0-0---0-0---|- -----------------|- -----------------|
- -----5-5---5-5---|- -2---2-2---2-2-0-|- -2---2-2---2-2-0-|- -2---2-2---2-2---|- -0---0-0---0-0---|- -----------------|
-- -0---0-0---0-0-0-|- -2---2-2---2-2-2-|- -2---2-2---2-2-2-|- -2---2-2---2-2-0-|- -0---0-0---0-0---|- -----------------|
- -----5-5---5-5---|- -3---3-3---3-3---|- -2---2-2---2-2-2-|- -0---0-0---0-0-2-|- ---------------0-|- -----------------|
-- -0---0-0---0-0-0-|- -3---3-3---3-3-2-|- -2---2-2---2-2-2-|- -0---0-0---0-0-0-|- -----------------|- -----------------|
- -------1-1-0-0---|- -2---2-2-2-2-2-0-|- -2---2-2-2-2-2-0-|- -2---2-----------|- -0---0-----------|- -----------------|
-- -------1-1-0-0---|- -2---2-2-2-2-2-0-|- -2---2-2-2-2-2-0-|- -2---2-----------|- -0---0-----------|- -----------------|
- -----------------|- -----3-3---3-3-0-|- -3---3-3---3-3-2-|- -5---5-5---5-5-4-|- -----------------|- -----------------|
-- -----------------|- ---------------0-|- -3---3-3---3-3-2-|- -5---5-5---5-5-4-|- -----------------|- -----------------|
- -0---0-0---0-0-0-|- -0---0-0---0-0-0-|- -2---2-2---2-2-2-|- -4---4-4---4-4-3-|- -----------------|- -----------------|
-- -0---0-0---0-0-0-|- -0---0-0---0-0-0-|- -2---2-2---2-2-2-|- -4---4-4---4-4-3-|- -----------------|- -----------------|
- -0---0-0---0-0-0-|- -0---0-0---0-0-0-|- -2---2-2---2-2-2-|- -3---3-3---3-3-0-|- -----------------|- -----------------|
-- -0---0-0---0-0-0-|- -0---0-0---0-0-0-|- -2---2-2---2-2-2-|- -3---3-3---3-3-0-|- -----------------|- -----------------|
- -----------------|- -----------------|- -2~--------------|- -0~--------------|- -0~--------------|- -0~--------------|
-- -----------------|- -----------------|- -2~--------------|- -0~--------------|- -0~--------------|- -0~--------------|
So the chords go like this:
[Riff 22, Guitar 1 & 2] - [02:43] - [03:00]- -1-5-5-0---0-0---|- -3-2-3-2-3-0-0---|- -2-2-2-2-3-2-2-2-|- -0-2-0-2-5-4-3-0-|- ---0---0-------0-|- ---------------0-|
-- -1-0-0-0---0-0---|- -3-2-3-2---0-0---|- -2-2-2-2-3-2-2-2-|- -0-2-0-2-5-4-3-0-|- ---0---0-------0-|- ---------------0-|
Again.. im still unsure about this :P take it r leave it aha ----------------------------------------------------------------------------
[Riff 23a] - [03:00] - [03:31]- -----------------------------------------------------------------|- -----------------------------------------------------------------|- -----------------------------------------------------------------|- -0---0-0-0-0-0-0-7---7-7-7-7-7\--0---0-0-0-0-0-0-0---0-0-0-0-0-0-|- -0---0-0-0-0-0-0-7---7-7-7-7-7\--0---0-0-0-0-0-0-0---0-0-0-0-0-0-|- -0---0-0-0-0-0-0-7---7-7-7-7-7\--0---0-0-0-0-0-0-0---0-0-0-0-0-0-|
- ------------------------------------------------------------------|- ------------------------------------------------------------------|- ------------------------------------------------------------------|- -5---5-5-5-5-5-4-4---4-4-4-4-4-3-3---3-3-3-3-3-3------------------|- -5---5-5-5-5-5-5-5---5-5-5-5-5-3-3---3-3-3-3-3-3-0-0-0-0-0-0-0000-|- -5---5-5-5-5-5-4-4---4-4-4-4-4-3-3---3-3-3-3-3-3-0-0-0-0-0-0-0000-|PM ................
- -----------------------------------------------------------------|- -----------------------------------------------------------------|- -----------------------------------------------------------------|- -0---0-0-0-0-0-0-7---7-7-7-7-7\--0---0-0-0-0-0-0-0---0-0-0-0-0-0-|- -0---0-0-0-0-0-0-7---7-7-7-7-7\--0---0-0-0-0-0-0-0---0-0-0-0-0-0-|- -0---0-0-0-0-0-0-7---7-7-7-7-7\--0---0-0-0-0-0-0-0---0-0-0-0-0-0-|
- ----------------------------------------------------------------------|- ----------------------------------------------------------------------|- ----------------------------------------------------------------------|- -5---5-5-5-5-5-4-4---4-4-4-4-4-3-3---3-3-3-3-3-3-3-3-3-3-3-3-3-3-0~---|- -5---5-5-5-5-5-5-5---5-5-5-5-5-3-3---3-3-3-3-3-3-3-3-3-3-3-3-3-3-0~---|- -5---5-5-5-5-5-4-4---4-4-4-4-4-3-3---3-3-3-3-3-3-3-3-3-3-3-3-3-3-0~---|
[Riff 23b] - [03:00] - [03:31]- -----------------------------------------------|- -----------------------------------------------|- -19---19-19-19-19-19\18-18---18-18-18-18-18\12-|- -x----x--x--x--x--x--x--x----x--x--x--x--x--x--|- -17---17-17-17-17-17\16-16---16-16-16-16-16\10-|- -----------------------------------------------|
- ------------------------------------------|- ------------------------------------------|- -12---12-12-12-12-12\10-10---10\9-9-9-9-9-|- -x----x--x--x--x--x--x--x----x--x-x-x-x-x-|- -10---10-10-10-10-10\8--8----8-\7-7-7-7-7-|- ------------------------------------------|
- -----------------------------------------------|- -----------------------------------------------|- -15---15-15-15-15-15\14-14---14-14-14-14-14-14-|- -x----x--x--x--x--x--x--x----x--x--x--x--x--x--|- -13---13-13-13-13-13\12-12---12-12-12-12-12-12-|- -----------------------------------------------|
- ----------------------------------------13h17-|- -------------------------------------15-------|- -14---14-14-14-14-14-14-----------14----------|- -x----x--x--x--x--x--x--0h7/12-15-------------|- -12---12-12-12-12-12-12-----------------------|- ----------------------------------------------|
- -----------------------------------------------|- -----------------------------------------------|- -19---19-19-19-19-19\18-18---18-18-18-18-18\12-|- -x----x--x--x--x--x--x--x----x--x--x--x--x--x--|- -17---17-17-17-17-17\16-16---16-16-16-16-16\10-|- -----------------------------------------------|
- ------------------------------------------|- ------------------------------------------|- -12---12-12-12-12-12\10-10---10\9-9-9-9-9-|- -x----x--x--x--x--x--x--x----x--x-x-x-x-x-|- -10---10-10-10-10-10\8--8----8-\7-7-7-7-7-|- ------------------------------------------|
- -----------------------------------------------|- -----------------------------------------------|- -15---15-15-15-15-15\14-14---14-14-14-14-14-14-|- -x----x--x--x--x--x--x--x----x--x--x--x--x--x--|- -13---13-13-13-13-13\12-12---12-12-12-12-12-12-|- -----------------------------------------------|
- ------------------------------------------------------|- ------------------------------------------------------|- -14---14-14-14-14-14-14-14-14-14-14-14-14-14-14-14~---|- -x----x--x--x--x--x--x--x--x--x--x--x--x--x--x--x-----|- -12---12-12-12-12-12-12-12-12-12-12-12-12-12-12-12~---|- ------------------------------------------------------|
----------------------------------------------------------------------------
[Riff 24] - [03:27] - [03:34]- ---0-----0-----0-----0-----0-----0-----------|- -----0-----0-----0-----0-----0-----0---------|- -2-----2-----2-----2-----2-----2-----2~------|- ---------------------------------------------|- ---------------------------------------------|- ---------------------------------------------|
----------------------------------------------------------------------------
[Riff 25] - [03:34] - [03:55]---------| 4x- ------------------------------------|- ------------------------------------|- -2-2---2-----2---0h2-2---2-----2----|- -3-3-3-3-3-3-3-3-5---5-5-5-5-5-5-5--|- -5-5-5-5-5-5-5-5-3---3-3-3-3-3-3-3--|- ------------------------------------|
[Riff 26] - [03:45] - [03:55]- -13----------13----------15----------15----------|- ----15----15----15----15----13----13----13----13-|- -------14----------14----------12----------12----|- -------------------------------------------------|- -------------------------------------------------|- -------------------------------------------------|
- -13----------13----------15----------15~---------|- ----15----15----15----15----13----13-------------|- -------14----------14----------12----------------|- -------------------------------------------------|- -------------------------------------------------|- -------------------------------------------------|
----------------------------------------------------------------------------
[Riff 27] - [03:55] - [05:04]---------------------------------------| 3x- ------------------------------------------------------------------|- ------------------------------------------------------------------|- ------------------------------------------------------------------|- -0-0-0-0-0-0-0-0-5-5-5-5-5-5-5-5-0-0-0-0-0-0-0-0-5-5-5-5-5-5-5-5--|- -0-0-0-0-0-0-0-0-3-3-3-3-3-3-3-3-0-0-0-0-0-0-0-0-3-3-3-3-3-3-3-3--|- -0-0-0-0-0-0-0-0-----------------0-0-0-0-0-0-0-0------------------|
- -----------------------------------------------------------------|- -----------------------------------------------------------------|- -----------------------------------------------------------------|- -0-0-0-0-0-0-0-0-5-5-5-5-5-5-5-5-3-3-3-3-2-2-2-2-0~--------------|- -0-0-0-0-0-0-0-0-3-3-3-3-3-3-3-3-1-1-1-1-0-0-0-0-0~--------------|- -0-0-0-0-0-0-0-0---------------------------------0~--------------|
[Riff 28] - [03:55] - [04:16]- ---------------------------------------------------|- ---------------------------------------------------|- -9/10-10-10-10-10-10-10-10-12-12-12-12-12-12-12-12-|- -x-x--x--x--x--x--x--x--x--x--x--x--x--x--x--x--x--|- -7/12-12-12-12-12-12-12-12-14-14-14-14-14-14-14-14-|- ---------------------------------------------------|
- ---------------------------------------------------|- ---------------------------------------------------|- -9/10-10-10-10-10-10-10-10-12-12-12-12-12-12-12-12-|- -x-x--x--x--x--x--x--x--x--x--x--x--x--x--x--x--x--|- -7/12-12-12-12-12-12-12-12-14-14-14-14-14-14-14-14-|- ---------------------------------------------------|
- ---------------------------------------------------|- ---------------------------------------------------|- -9/10-10-10-10-10-10-10-10-12-12-12-12-12-12-12-12-|- -x-x--x--x--x--x--x--x--x--x--x--x--x--x--x--x--x--|- -7/12-12-12-12-12-12-12-12-14-14-14-14-14-14-14-14-|- ---------------------------------------------------|
- -------------------------------------------------------------------|- -------------------------------------------------------------------|- -19-19-19-19-18-18-18-18-12/14-14-14-14/19-19-19-19-19-19-19-19-19-|- -x--x--x--x--x--x--x--x--x--x--x--x--x--x--x--x--x--x--x--x--x--x--|- -17-17-17-17-16-16-16-16-10/12-12-12-12/17-17-17-17-17-17-17-17-17-|- -------------------------------------------------------------------|
[Riff 29] - [04:16] - [05:04]--------------------------------| 2x- -13-------13-------13-------13-------13-------13-----------|- ----15-------15-------15-------15-------15-------15----15--|- -------14-------14-------14-------14-------14-------14-----|- -----------------------------------------------------------|- -----------------------------------------------------------|- -----------------------------------------------------------|
- -8------8------8------8------8------8---------|- ---10-----10-----10-----10-----10-----10---10-|- ------9------9------9------9------9------9----|- ----------------------------------------------|- ----------------------------------------------|- ----------------------------------------------|
- -13-------13-------13-------13-------13-------13----------|- ----15-------15-------15-------15-------15-------15----15-|- -------14-------14-------14-------14-------14-------14----|- ----------------------------------------------------------|- ----------------------------------------------------------|- ----------------------------------------------------------|
- -8------8------8------8------8------8---------|- ---10-----10-----10-----10-----10-----10---10-|- ------9------9------9------9------9------9----|- ----------------------------------------------|- ----------------------------------------------|- ----------------------------------------------|
- -13-------13-------13----17-------17-------17----|- ----15-------15-------15----15-------15-------15-|- -------14-------14-------------14-------14-------|- -------------------------------------------------|- -------------------------------------------------|- -------------------------------------------------|
- -8------8------8----12------12------12----|- ---10-----10-----10----10------10------10-|- ------9------9------------9-------9-------|- ------------------------------------------|- ------------------------------------------|- ------------------------------------------|
- -10-------10-------10------------------------|- ----11-------11-------11------8h10----10p8---|- -------10-------10-------9h10------10------9-|- ---------------------------------------------|- ---------------------------------------------|- ---------------------------------------------|
- -------------------------------------------------|-[04:56]-------------|- -------------------------------------------------|---------------------|- -14-14-14-14-14-14-14/19-19-19-19-19-19-19-19-19-|-12/14~-(end on 2nd--|- -x--x--x--x--x--x--x--x--x--x--x--x--x--x--x--x--|-x--x----time playd)-|- -12-12-12-12-12-12-12/17-17-17-17-17-17-17-17-17-|-10/12~--------------|- -------------------------------------------------|---------------------|
----------------------------------------------------------------------------
[Riff 30] - [04:56] - [05:12]- -1-----1-----1---1-----1-----1---0-----0-----0---0-----0-----0-----------|- ---3-----3-----3---3-----3-----3---3-----3-----3---2-----2-----2---------|- -----2-----2---------2-----2---------2-----2---------2-----2-----2~------|- -------------------------------------------------------------------------|- -------------------------------------------------------------------------|- -------------------------------------------------------------------------|
- -------------------------|- ---------3~--------------|- -------2-----------------|- -----0-------------------|- ---0---------------------|- -0-----------------------|
whollyyy tabbing wtff.. :P ---------------------------------------------------------------------------- [Symbols] ~ Let Ring PM... Palm Mute notes with (...) under them h Hammer On p Pull Off / Slide Up \ Slide Down T Right Finger Tap AP... Alternate Pick notes with (...) under them b Bend x Dead Note :D
Please rate this tab:
x1.0