August Burns Red - Constellations tab

[Constellations]
[August Burns Red]

Tuning: CGCFAD (Drop C or Drop D 1 Step Down)
joshuaoliveira@hotmail.com

Note: to find each song, instead of scrolling up n down fr a million
hours lol just hit Ctrl F n search the name of the song. i tried to make
the song names big n noticeable.. but the tabs huge, it really does it no
justice lol. this took me since.. it came out basically ahaha i think
its like 90% correct :P

Watch the times, they show whats happening where and if anything overlaps.
See how many times each riff is played (No indication means 1).
Watch if each part has one guitar or more and check if they match up.
For most break downs each "-" is a 16th note and is tabbed accordingly.
Symbols listed at bottum.

Enjoy!


----------------------------------------------------------------------------

----------------------------------------------------------------------------

--------------------- [01. Thirty And Seven] - [03:18] ---------------------

----------------------------------------------------------------------------

----------------------------------------------------------------------------


[Riff 1] - [00:00] - [00:04]- --------------------------------|- --------------------------------|- --------------------------------|- -0~----------------------///----|- -0~----------------------///----|- -0~----------------------///----|
----------------------------------------------------------------------------
[Riff 2] - [00:04] - [00:34]- -----------------------------------------------------------------|- -----------------------------------------------------------------|- -----------------------------------------------------------------|- -------7---5---------------------------------------3p2---------5-|- -8-------------7/8---8---8---3---5p0-----------3h5-----3-----7---|- ---0-0---0---0-----0---0---0---0-----0-0-0-0-0-----------5h8-----|PM ... . . . . . . .........
- ---------------------------------------------------------6---6---|- -----------------------------------------------6-----------------|- -----------------------------5--/7-----7---7-----7---7-----------|- ---------------7p3---3---3---------5-5---5---5-----5---5---5---5-|- -8p5---8---8-----------------------------------------------------|- -----0---0---0-----0---0---0-------------------------------------|PM . . . . . . ... . . . . . .
- -----------------------------------------------------------------|- -----------------------------------------------------------------|- -----------------------------------------------------------------|- -7-------------0h3h5p3p0-2h3h5---------------------3p2---------5-|- -------5---5-------------------3h5p0-----------3h5-----3-----7---|- ---0-0---0---0-----------------------0-0-0-0-0-----------5h8-----|PM ... . . .........
- -----------------------------------------------------------------|- -----------------------------------------------6---------5h6-----|- -----------------------------5--/7-----7---7-----7---7-------7---|- ---------------7p3---3---3---------5-5---5---5-----5---5---------|- -8p5---8---8-----------------------------------------------------|- -----0---0---0-----0---0---0-------------------------------------|PM . . . . . . ... . . . .
- ---------------------------------------------------------------|- -----------------------------------------------------------10--|- -3-----3---3---7-7---7---7---3---2h3p2------------------10-----|- ---5-5---5---5-----5---5---5---5-------3p2h3---------10--------|- ---------------------------------------------3/5-5/8-----------|- ---------------------------------------------------------------|PM ... . . . . . .
- -------------------8/10--------[10~]---------|- -------11p10h10p11---------------------------|- -10/12---------------------------------------|- ---------------------------------------------|- ---------------------------------------------|- ---------------------------------------------|
- -----------------------------------------------|- -----------------------------------------------|- -10h12p10----10h14p12p10-9h10h12----9h10-------|- ----------12---------------------10------12p10-|- -----------------------------------------------|- -----------------------------------------------|
[Riff 3] - [00:24] - [00:34]- ---------|- ---6---6-|- ---7---7-| Play for 2 bars each behind riff 2- -8-7-8-7-| i dont think its strummed. but you can if you- -5-5-5-5-| think so!- -5---5---|
[Riff 4] - [00:34] - [00:44]- -------------------------------------17h18-15h17-13h15-|- -------------------13-15-15/18-17-18-------------------|- -10-12-12/15-14-15-------------------------------------|- -------------------------------------------------------|- -------------------------------------------------------|- -------------------------------------------------------|
- ----------------------------17h18p17-------------------|- -------------------13-15/18----------18----------18\17-|- -10-12-12/15-14-15----------------------17----17-------|- -------------------------------------------19----------|- -------------------------------------------------------|- -------------------------------------------------------|
- -------------------------------------17h18-15h17-13h15-|- -------------------13-15-15/18-17-18-------------------|- -10-12-12/15-14-15-------------------------------------|- -------------------------------------------------------|- -------------------------------------------------------|- -------------------------------------------------------|
- ---------------------------------------------13-|- -10h13---------------------------------13h15----|- -------9h10-------------------10h12/14----------|- ------------10h12-------10h12-------------------|- ------------------10h12-------------------------|- ------------------------------------------------|
[Riff 3, Guitar 1 & 2] - [00:44] - [00:54]- -8--------8---------8---------8/13~------8--------8------------|- ----10--------10--------10------------------10--------10----10-|- -------10--------10--------10------------------10--------10----|- ---------------------------------------------------------------|- ---------------------------------------------------------------|- ---------------------------------------------------------------|
-- ---------------------------------------------------------------|- -10-------10--------10--------10/15~-----10-------10-----------|- ----10--------10--------10------------------10--------10----10-|- -------12--------12--------12------------------12--------12----|- ---------------------------------------------------------------|- ---------------------------------------------------------------|
- -----------------------------------------------------------------|- ----------------8h10-11p10----11-p10----11-p10-------------------|- --------------7------------10--------10--------10h12-9h10--------|- -7----7-8--10----------------------------------------------10h12-|- ---10------------------------------------------------------------|- -----------------------------------------------------------------|
PM ..............-- -----------------------------------------------------------------|- -----------------------------------------------------------------|- ----------------9h10-12p10----12-p10----12-p10-------------------|- -----------7--8------------12--------12--------12h14-10h12-------|- -8-7--8-10-------------------------------------------------12h13-|- -----------------------------------------------------------------|PM ..............
- ---------------------------------------|- -10h11p10------------------------------|- ----------10p9-12p10p9-7h9h10---9h10-7-|- ------------------------------7--------|- ---------------------------------------|- ---------------------------------------|
-- ---------------------------------------|- -10h11p10------------------------------|- ----------10p9-12p10p9------7---5h7----|- -----------------------8h10------------|- ------------------------------8------5-|- ---------------------------------------|
[Riff 5] - [00:34] - [00:54]- ---------------|- -3-6-3---3-6-3-|- -3-7-3---3-7-3-|- -3-7-3-7-3-7-3-| strum for 2 bars each behind riff 4- -1-5-1-3-1-5-1-|- -------3-------|
----------------------------------------------------------------------------
[Riff 6,Guitar 1 & 2] - [00:54] - [01:05]---------------------------| 2x- ------------------------------------------------------------------|- ------------------------------------------------------------------|- ------------------------------------------------------------------|- ---------------------------------------------------3p2---5--------|- -0---0---000---0---000---000000000-000-0-000---0-5-----4---1h4p0--|- -0---0---000---0---000---000000000-000-0-000---0------------------|
PM ................................................. .-- -----------------------------------------------------------------|- -----------------------------------------------------------------|- -----------------------------------------------------------------|- -----7-8-7-----------7-8-7-----------7-8-7---------7p5---8-------|- -5-8-------8-7-4-5-8-------8-7-4-5-8-------8-7-4-8-----7---5h7p4-|- -----------------------------------------------------------------|PM . .
[Riff 7a] - [01:05] - [01:10]- ------------------------------------------------------------------|- ------------------------------------------------------------------|- --------(Let Notes Ring Out)--------------------------------------|- -------------------------------------------------8---5---7---[7~]-|- -0---0---000---0---000---000000000-000-0-000---0------------------|- -0---0---000---0---000---000000000-000-0-000---0---00--00--00-----|PM ............................................... .. .. ..
[Riff 7b] - [01:05] - [01:10]- --------------------------------------------------------------------------|- --------------------------------------------------------------------------|- -----10-11-10-----------10-11-10-----------10-11-10-------7-------6--[6~]-|- -7-10--------10-9-6-7-10--------10-9-6-7-10--------10-9-6-----8-----------|- --------------------------------------------------------------------------|- ------------------------------------------------------------00--00--00----|PM .. .. ..
[Riff 8a] - [01:10] - [01:16]- -----------------------------------------------------------------|- -----------------------------------------------------------------|- -----------------------------------------------------------------|- -------------------------------------------------8---5---7-------|- -0---0---000---0---000---000000000-000-0-000---0-------------7\--|- -0---0---000---0---000---000000000-000-0-000---0-----------------|PM .........................................................AP .........
[Riff 8b, Guitar 1 & 2] - [01:10] - [01:16]- --------------------------------------------------------------------------|- --------------------------------------------------------------------------|- -----10-11-10-----------10-11-10-----------10-11-10-----------------------|- -7-10--------10-9-6-7-10--------10-9-6-7-10--------10-9-6-12--8---11--7\--|- --------------------------------------------------------------------------|- --------------------------------------------------------------------------|
PM ..........AP ..........-- --------------------------------------------------------------------------|- -----6--8--6------------6--8--6------------6--8--6------------------------|- ---7---------7--6-----7---------7--6-----7---------7--6-------------------|- -7----------------7-7----------------7-7----------------7-----------------|- --------------------------------------------------------------------------|- --------------------------------------------------------------------------|
----------------------------------------------------------------------------
[Riff 9, Guitar 1 & 2] - [01:16] - [01:21]- -----------------------------------------------------------------|- -----------------------------------------------------------------|- -----------------------------------------------------------------|- -0~------------------------------///-----------------------------|- -0~------------------------------///-----------------------------|- -0~------------------------------///-----------------------------|
-- -----------------------------------------------------------------|- -----------------------------------------------------------------|- -----------------------------------------------------------------|- -0~----------------------------------------------///-------------|- -0~----------------------------------------------///-------------|- -0~----------------------------------------------///-------------|
----------------------------------------------------------------------------
[Riff 10] - [01:21] - [01:31]- ----------------------------------------------|- ----------------------------------------------|- ----------------------------------------------|- -----5h7p0-5h7p0-----7h12p0-7h12p0-8h12p0-----|- ----------------------------------------------|- -000-------------000----------------------000-|PM ... ... ...
- ----------------------------------------------|- ----------------------------------------------|- -----------------------------------6h7p6-[7~]-|- -----5h7p0-5h7p0-----8h12p0-7h12p0------------|- ----------------------------------------------|- -000-------------000--------------------------|PM ... ...
- ----------------------------------------------|- ----------------------------------------------|- ----------------------------------------------|- -----5h7p0-5h7p0-----7h12p0-7h12p0-8h12p0-----|- ----------------------------------------------|- -000-------------000----------------------000-|PM ... ... ...
- ----------------------------------------------|- ----------------------------------------------|- ---------------------6h7p6--------------------|- -----5h7p0-5h7p0-----------7-------3-0~-------|- -----------------------------0h3h7---0~-------|- -000-------------000-----------------0~-------|PM ... ...
[Riff 11] - [01:31] - [01:42]- -------------------------------------------|- -------------------------------------------|- -------------------------------------------|- -----3h7p0-3h7p0-----5h8p0-5h8p0-3h7p0-----|- -------------------------------------------|- ---0-------------000-------------------000-|PM . ... ...
- -------------------------------------------|- -------------------------------------------|- ---------------------------------6h7p6-----|- -----3h7p0-3h7p0-----5h8p0-3h7p0-------7---|- -------------------------------------------|- -000-------------000-----------------------|PM ... ...
- -------------------------------------------|- -------------------------------------------|- -------------------------------------------|- -----3h7p0-3h7p0-----5h8p0-5h8p0-3h7p0-----|- -------------------------------------------|- -000-------------000-------------------000-|PM ... ... ...
- -------------------------------------------|- -------------------------------------------|- ---------------------------------6h7p6-----|- -----3h7p0-3h7p0-----5h8p0-3h7p0-------7---|- -------------------------------------------|- -000-------------000-----------------------|PM ... ...
----------------------------------------------------------------------------
[Riff 12a] - [01:42] - [01:53]- -----------------------------------------|- -----------------------------------------|- -----9h10p9--------------9h10p9----------|- -7-7--------12-12-12-7-7--------12-12-12-|- -----------------------------------------|- -----------------------------------------|PM ... ...
- ------------------------------------------|- ---------------------11-10-8--------------|- -9-9-12-12-9-9-10-10---------10-9----10-9-|- ----------------------------------11------|- ------------------------------------------|- ------------------------------------------|
- ------------------------------------|- ------------------------------------|- -------------------10---------------|- ----8-7-8----8-7-8----8-7-8-----5-7-|- -10-------10----------------7-8-----|- ------------------------------------|
- -----------------10-6-------------|- ----------------------8-5-6---5---|- -------------6-9------------7---6-|- -------7-5-8----------------------|- -7-5-4----------------------------|- ----------------------------------|
[Riff 12b] - [01:42] - [01:53]- -----------------------------------------------------------------|- -----------------------------------------------------------------|- -2-2-2-2-2-2-2-2-2-2-2-2-2-2-2-2-0-0-0-0-0-0-0-0-0-0-0-0-0-0-0-0-|- -3-3-3-3-3-3-3-3-3-3-3-3-3-3-3-3-2-2-2-2-2-2-2-2-2-2-2-2-2-2-2-2-|- -5-5-5-5-5-5-5-5-5-5-5-5-5-5-5-5-4-4-4-4-4-4-4-4-4-4-4-4-4-4-4-4-|- -----------------------------------------------------------------|PM ...............................................................
- -----------------------------------------------------------------|- -----------------------------------------------------------------|- ---------0---------------0---------------0-----------------------|- -3-3-3-3-3-3-3-3-3-3-3-3-3-3-3-3-2-2-2-2-2-2-2-2-2-2-2-2-2-2-2-2-|- -1-1-1-1-1-1-1-1-1-1-1-1-1-1-1-1-0-0-0-0-0-0-0-0-0-0-0-0-0-0-0-0-|- -----------------------------------------------------------------|PM ....... ............. ............. .....................
----------------------------------------------------------------------------
[Riff 13, Guitar 1 & 2] - [01:53] - [02:04]--------------------------| 2x- -------------------------------------------------------------------|- -------------------------------------------------------------------|- -------------------------------------------------------------------|- -------------------------------------------------------------------|- -000-0-0-0-0-000-0-0-0-0-000-000-000-0-0-000-000-0-0-0-0-00000000--|- -000-0-0-0-0-000-0-0-0-0-000-000-000-0-0-000-000-0-0-0-0-00000000--|
PM ................................................................-- ------------------------------------------------------------------|- ------------------------------------------------------------------|- ------------------------------------------------------------------|- ------------------------------------------------------------------|- -000---------000---------000-000-000-----000-000---------00000000-|- -000---------000---------000-000-000-----000-000---------00000000-|PM ................................................................
----------------------------------------------------------------------------
[Riff 14, Guitar 1 & 2] - [02:04] - [02:06]- ---------------------------------|- ---------------------------------|- -----------------------------6---|- -8---5h7-----------8p7---7-------|- -----------7---8-------8---------|- ---0-----0---0---0---------0-----|
PM . . . . . .-- ---------------------------------|- ---------------------------------|- ---------------------------------|- -5---2h3-----------5p3p0-----7---|- -----------3---5---------7-------|- ---0-----0---0---0---------0-----|PM . . . . .
----------------------------------------------------------------------------
[Riff 15] - [02:06] - [02:15]- ---------------------------------------|- ---------------------------------------|- -7-----10---9--------------------------|- ----------------10h12---12---12--------|- ----------------------------------12---|- ---0-0----0---0-------0----0----0----0-|PM ... . . . . . .
- ------------------------------------------|- ------------------------------------------|- ----------------------10p9-------------12-|- -12p0-----------10h12------10-------12----|- ------------------------------10h13-------|- ------0-0-0-0-0---------------------------|PM .........
- ------------------------------------|- ------------------------------------|- ------------------------------------|- -12p0---10---12---7h8---8---8---5---|- ------------------------------------|- ------0----0----0-----0---0---0---0-|PM . . . . . . .
- -------------------------6---6---|- ---------------6-----------------|- -7-----7---7-----7---7-----------|- ---5-5---5---5-----5---5---5---5-|- ---------------------------------|- ---------------------------------|PM ... . . . . . .
----------------------------------------------------------------------------
[Riff 16, Guitar 1 & 2] - [02:15] - [02:25]- -----------------------------------------|- -----------------------------------------|- -7------10---9---------------------------|- ------------------10h12---12---12--------|- ------------------------------------12---|- ----0-0----0----0-------0----0----0----0-|
PM ... . . . . . .-- -----------------------------------------|- -----------------------------------------|- -10-----14---12--------------------------|- ------------------14h15---15---15---12---|- -----------------------------------------|- ----0-0----0----0-------0----0----0----0-|PM ... . . . . . .
- -------------------------------------------|- -------------------------------------------|- ----------------------10p9--------------12-|- -12p0-----------10h12-------10-------12----|- -------------------------------10h13-------|- ------0-0-0-0-0----------------------------|
PM .........-- -------------------------------------------|- -------------------------------------------|- ----------------------14p12-------------15-|- -15p0-----------14h15-------14-------15----|- -------------------------------13h17-------|- ------0-0-0-0-0----------------------------|PM .........
- ----------------------------------------|- ----------------------------------------|- ----------------------------------------|- -12p0---10---12----7h8----8----8----5---|- ----------------------------------------|- ------0----0----0-------0----0----0---0-|
PM . . . . . . .-- ----------------------------------------|- ----------------------------------------|- ----------------------------------------|- -15p0---14---15---10h12---12---12---8---|- ----------------------------------------|- ------0----0----0-------0----0----0---0-|PM . . . . . . .
- ----------------------------------------|- ------------------6------------5h6------|- -7------7----7-------7----7---------7---|- ----5-5----5----5-------5----5----------|- ----------------------------------------|- ----------------------------------------|
PM ... . . . .-- ----------------------------------------|- ------------------10-------------10-----|- -10-----10---10------10---10---9----10--|- ----8-8----8----8-------8----8----------|- ----------------------------------------|- ----------------------------------------|PM ... . . . .
----------------------------------------------------------------------------
[Riff 17, Guitar 1 & 2] - [02:25] - [02:35]- ---------------------------------|- ---------------------------------|- ---------------------------------|- -5-----------------------7-------|- -----------------8---------------|- ---------------------------------|
AP .........................-- ---------------------------------|- ---------------------------------|- --------7----------------10------|- -8-------------------------------|- ---------------------------------|- ---------------------------------|AP ..........................
----------------------------------------------------------------------------
[Riff 18, Guitar 1 & 2] - [02:35] - [02:45]- -----------------------------------------------------------------|- -----------------------------------------------------------------|- -----------------------7-----------------------------------------|- -8-----8-----7---8---------5-------------------7---------------7-|- -----------------------------------------8\3/5-----------8\3/5---|- ---5-5---5-5---5---5-5---5---5-5-000-000---------000-000---------|
PM ... ... . ... . ........... .......-- ------------------------------------------------------------------|- -----------------------6-----------------------6---------------5--|- -7-----7-----5---7------------------------------------------------|- ---------------------------8-------------0h2h3-----------0h2h3----|- ------------------------------------------------------------------|- ---5-5---5-5---5---5-5---5---5-5-000-000---------000-000----------|PM ... ... . ... . ........... .......
- -----------------------------------------------------|- -----------------------------------------------------|- -----------------------------------------------------|- -5-----5---------5-----8---7-------------------------|- -------------8-----------------000000000-0-0-0-------|- ---5-5---5-5---5---5-5---5-----000000000-0-0-0-------|
PM ... ... . ... . ...............-- -----------------------------------------------------|- ---------------------------6-------------------------|- -----------------------7-----------------------------|- -8-----8-----7---8-----------------------------------|- -------------------------------000000000-0-0-0-------|- ---5-5---5-5---5---5-5---5-----000000000-0-0-0-------|PM ... ... . ... . ...............
----------------------------------------------------------------------------
[Riff 19] - [02:45] - [02:53]-----------------------| 2x- --------------------------------------------------|- --------------------------------------------------|- --------------------------------------------------|- --------------------------------------------------|- -000000000-0-0-0-----00000---000-000---00000-0-0--|- -000000000-0-0-0-----00000---000-000---00000-0-0--|PM ...............................................
----------------------------------------------------------------------------
[Riff 20a] - [02:53] - [03:04]--------------------------------------| 2x- ------------------------------------------------------------------|- ------------------------------------------------------------------|- ------------------------------------------------------------------|- ------------------------------------------------------------------|- -000000000-0-0-0-----00000---000-000---00000-0-0---00000-0-00000--|- -000000000-0-0-0-----00000---000-000---00000-0-0---00000-0-00000--|PM ...............................................................
[Riff 21b, Guitar 1 & 2] - [02:53] - [03:04]- ---------------------------------|- ---------------------------------|- ---------------------------------|- -----------------3---------------|- -5-------1---0-----------5---4---|- ---------------------------------|
AP .............................-- ---------------------------------|- ---------------------------------|- ---------------------------------|- -7-------------------------------|- -------------------------8---7---|- ---------------------------------|AP .............................
----------------------------------------------------------------------------
[Riff 22] - [03:04] - [03:18]- ---------|- ---------|- ---------|- -0~------|- -0~------|- -0~------|
---------------------------------------------------------------------------- ---------------------------------------------------------------------------- ------------------------- [02. Existence] - [03:54] ------------------------ ---------------------------------------------------------------------------- ----------------------------------------------------------------------------
[Riff 1, Guitar 1 & 2] - [00:00] - [00:10]- -----------------------------------------------------------------|- -----------------------------------------------------------------|- -7-------------7-----------------7-------------7-----------------|- -----------7h8-----------------------------7h8-------------------|- ---0-0-0-0-------0-0-0-0-000-0-0---0-0-0-0-------0-0-0-0-0-------|- ---0-0-0-0-------0-0-0-0-000-0-0---0-0-0-0-------0-0-0-0-0-------|
PM ....... ............... ....... .........-- -----------------------------------------------------------------|- -----------------------------------------------------------------|- -----------------------------------------------------------------|- ---------------------------------------------------------------3-|- -0-0-0-0-0-----------------------0-0-0-0-0-------0-0-0-0-5p0h1---|- -0-0-0-0-0-----------------------0-0-0-0-0-------0-0-0-0---------|PM .......................................................
- ------------------------------------------------------------------------|- ------------------------------------------------------------------------|- -7-------------7-----------------7---------------10-9-7-----7-----------|- -----------7h8-----------------------------7h8-----------10----10-8--7--|- ---0-0-0-0-------0-0-0-0-000-0-0---0-0-0-0------------------------------|- ---0-0-0-0-------0-0-0-0-000-0-0---0-0-0-0-----0------------------------|
PM ....... ............... ....... .-- ------------------------------------------------------------------------|- -------------------------------------------------10-8-------------------|- ------------------------------------------------------10-9--10-9--------|- ------------------------------------------------------------------12-10-|- -0-0-0-0-0-----------------------0-0-0-0-0------------------------------|- -0-0-0-0-0-----------------------0-0-0-0-0------------------------------|PM .........................................
----------------------------------------------------------------------------
[Riff 2] - [00:10] - [00:19]- -------------------------------------------------------------------|- -------------------------------------------------------------------|- -7-------------7---------------7-7-------------7-7-7-7-7-10-7----7-|- -----------7h8-------8---7h8---------8---7h8------------------10---|- -------------------------------------------------------------------|- ---0-0-0-0-------0-0---0-----0-----0---0-----0---------------------|PM ....... ... . . . . .
- ----------------------------------------------------------------------|- ----------------------------------------------------------------------|- -7--------------7---------------7-7---------------10-9-7----7---------|- ------------7h8-------8---7h8---------8---7h8------------10---10-8-7--|- ----------------------------------------------------------------------|- ---0-0-0-0--------0-0---0-----0-----0---0-----0-0---------------------|PM ....... ... . . . . ...
- ----------------------|- -10-8-----------------|- ------10-9-10-9-------| harmony part played at end.- ----------------12-10-|- ----------------------|- ----------------------|
---------------------------------------------------------------------------- [Riff 2] - [00:19] - [00:28]
[Riff 3] - [00:19] - [00:28]- -------------------------------------------------------------|- -------------------------------------------------------------|- -10---------------10------------------10-10------------------|- ------------10h12--------12---10h12-----------12---10h12-----|- -------------------------------------------------------------|- ----0-0-0-0----------0-0----0-------0-------0----0-------0-0-|PM ....... ... . . . . ...
- -------------------------------------------------------------|- -------------------------------------------------------------|- -------------10--------------------------10------------------|- -10-10-10-10----10-9-10-10---------10h12--------12---10h12---|- -------------------------------------------------------------|- ---------------------------0-0-0-0----------0-0----0-------0-|PM ....... ... . .
- ---------------------------------------------|- ------------------------10-8-----------------|- -10-10-----------------------10-9-10-9-------|- ---------12---10h12--------------------12-10-|- ---------------------------------------------|- -------0----0-------0-0----------------------|PM . . ...
----------------------------------------------------------------------------
[Riff 4, Guitar 1 & 2] - [00:28] - [00:43]-------------------------------| 3x- -----------------------------------------------------------------------|- -------------------------8---11p10-------------------------------------|- ---------7-----9----10-------------10---------7------------------------|- -----7------------------------------------7---------7---7---8---8-8-8--|- ----------------------------------------------------3---3---5---5-5-5--|- -0-0---0---0-0----0----0---0----------0-0---0---0-0-3---3---5---5-5-5--|
PM ... . ... . . . ... . ...-- ----------------------------------------------------------------------|- ----------------------------------------------------------------------|- -------------------------9---12p10------------------2---2---3---3-3-3-|- ---------8-----10---12-------------12---------8-----3---3---5---5-5-5-|- -----8------------------------------------8---------------------------|- -0-0---0---0-0----0----0---0----------0-0---0---0-0-------------------|PM ... . ... . . . ... . ...
[Riff 5, Guitar 1 & 2] - [00:43] - [00:46]- ---------------------------12---15-13--------------------|- ----------11-----13---15--------------15----------11-----|- -----10--------------------------------------10----------|- ---------------------------------------------------------|- ---------------------------------------------------------|- -0-0----0----0-0----0----0----0----------0-0----0----0-0-|
PM ... . ... . . . ... . ...-- ---------------------------15---18-17--------------------|- ----------15-----17---18--------------18----------15-----|- -----14--------------------------------------14----------|- ---------------------------------------------------------|- ---------------------------------------------------------|- -0-0----0----0-0----0----0----0----------0-0----0----0-0-|PM ... . ... . . . ... . ...
----------------------------------------------------------------------------
[Riff 6, Guitar 1 & 2] - [00:46] - [00:53]- ----------------------------------------------------------------------|- ----------------------------------------------------------------------|- -----------------------------------------------------------------9/12-|- -7---7---8---8-8-8-1212121215151511111111111111111111111111111111x-x--|- -3---3---5---5-5-5-8-8-8-8-1212127-7-7-7-7-7-7-7-7-7-7-7-7-7-7-7-7/10-|- -3---3---5---5-5-5-8-8-8-8-1212127-7-7-7-7-7-7-7-7-7-7-7-7-7-7-7------|
-- ----------------------------------------------------------------------|- ----------------------------------------------------------------------|- -2---2---3---3-3-3-7-7-7-7-1010106-6-6-6-6-6-6-6-6-9-9-9-9-9-9-9-9-9--|- -3---3---5---5-5-5-8-8-8-8-1212127-7-7-7-7-7-7-7-7-7-7-7-7-7-7-7-7-7--|- ---------------------------------------------------7-7-7-7-7-7-7-7-7--|- ----------------------------------------------------------------------|
- ------------------------------------------------|- ------------------------------------------------|- -12-12-12-12-12-12-12/15-15-15-15-15------------|- -x--x--x--x--x--x--x--x--x--x--x--x--12\--------|- -10-10-10-10-10-10-10/13-13-13-13-13-12\--------|- -------------------------------------12\--------|
-- ------------------------------------------------|- ------------------------------------------------|- -9--9--9--9--9--9--9--9--9--9--9--9-------------|- -7--7--7--7--7--7--7--7--7--7--7--7--12\--------|- -7--7--7--7--7--7--7--7--7--7--7--7--12\--------|- -------------------------------------12\--------|
if my gp gets accepted it'll explain this part Muchh more clearly.. lol ----------------------------------------------------------------------------
[Riff 7] - [00:53] - [01:04]- ------------------------------------------------------------------------|- ---------------------(Let notes ring out)-------------------------------|- ------------------------------------------------------------------------|- ------------------------------------------------------------------------|- -0000-0000---0000-0000-0000---0000-0000-0000-0000---0000-0000---0000----|- -0000-0000---0000-0000-0000---0000-0000-0000-0000---0000-0000---0000----|PM ...................................................................
- ----------|- ----------|- ----------|- ----------|- -00000000-|- -00000000-|PM ........
----------------------------------------------------------------------------
[Riff 8a] - [01:04] - [01:23]----------------------------------------------| 2x- -------------------------------------------------------------------------|- -------------------------------------------------------------------------|- -------------------------------------------------------------------------|- -------------------------------------------------------------------------|- -8888-8888---8888-8883-3333---3333-3333-7777-7777---7777-7773---3333-----|- -8888-8888---8888-8883-3333---3333-3333-7777-7777---7777-7773---3333-----|PM ...................................................................
- ----------|- ----------|- ----------|- ----------|- -33333333-|- -33333333-|PM ........
[Riff 8b] - [01:04] - [01:23]----| 2x- -------------------------------|- -3-1-1-1-----------------------|- -3-2-0-2-----------------------|- -3-3-2-3-----------------------|- -1-3-3-3-----------------------| strum for 2 bars each behind riff 8a- -------------------------------|PM .......
---------------------------------------------------------------------------- [Riff 8b] - [01:23] - [01:43] - 2x
[Riff 9] - [01:23] - [01:43]------------------------------------------------| 2x- --------------------------------------------------------------------------|- --------------------------------------------------------------------------|- --------------------10p7-----------------------14p10----------------------|- -0h5h7p0-12p8------------8----8p7----0h10h12p0-------------3-----8-5-7-7--|- ---------------------------10-----10-------------------------5-3----------|- --------------8-8-8----------------------------------000-0----------------|PM ..... ...........
- ---------------------------------------------------------------------|- ---------------------------------------------------------------------|- ------------------------10p7-----------------------14p10-------------|- -0h10p7p0-12p8---------------8----8p7----0h10h12p0-------------3-----|- -------------------------------10-----10-------------------------5-3-|- ---------------10-10-10----------------------------------000-0-------|PM ........ ...........
- ---------|- ---------|- ---------|- -8-5-7-7-|- ---------|- ---------|
---------------------------------------------------------------------------- [Riff 9] - [01:43] - [02:03] - 2x
[Riff 10] - [[01:43] - [02:03]-----------------------------------------------| 2x- ---------------------------------------------------------------------------|- -------------------10------------------------------------------------------|- ----------10p7--------10-7---7----------------------------------7----------|- -0h8h10p0------------------8---10-7-0h14h15p0-15p12-------7-------8-10-10--|- ------------------------------------------------------------8-7------------|- --------------8-8-8--------------------------------000-0-------------------|PM ..... ............
- -----------------------------------------------------------------------|- --------------------------10-------------------------------------------|- -----------------------------10-7---7----------------------------------|- -0h14p10p0-15p12------------------8---10-7-0h14h15p0-15p12-------7-----|- -------------------------------------------------------------------8-7-|- -----------------10-10-10----------------------------------000-0-------|PM ........ ...........
- -----------|- -----------|- -7---------|- ---8-10-10-|- -----------|- -----------|
---------------------------------------------------------------------------- [Riff 1, Guitar 1 & 2] - [02:03] - [02:12] ----------------------------------------------------------------------------
[Riff 11] - [02:12] - [02:32]------------------------------------------------| 2x- ---------------------------------------------------------------------------|- ---------------------------------------------------------------------------|- -7---------------10---7-----------------------------------------7----7-----|- -------8---7h8-------------8-----7h8--5p0---5---5h7h8/10---10--------------|- ---------------------------------------------------------------------------|- ---0-0---0-----0----0----0----0-----------0---0-----------0---0----0----0--|
PM ... . . . . . . . . . . .-- --------------------------------------------------------------------------|- -----------------10-------------------------------------------------------|- -10-------------------10--------------------------------9---9---10---10---|- ------12--10h12------------12---10h12-8p0---8---8h10h12-------------------|- --------------------------------------------------------------------------|- ---0-0---0-----0----0----0----0-----------0---0-----------0---0----0----0-|PM ... . . . . . . . . . . .
- --------------------------------------------------------------------------|- --------------------------------------------------------------------------|- -7---------------10---7----------------------------------------9h10-10h12-|- -------8---7h8-------------8-----7h8--5p0----------------7----------------|- ---------------------------------------------7h8-----7h8---8--------------|- ---0-0---0-----0----0----0----0-----------0-------0-----------0----0------|
PM ... . . . . . . . . .-- --------------------------------------------------------------------------|- -----------------10--------------------------------------------8h10-10h11-|- -10-------------------10---------------------------------10---------------|- ------12--10h12------------12---10h12-8p0-----------10h12--12-------------|- --------------------------------------------10h12-------------------------|- ---0-0---0-----0----0----0----0-----------0-------0-----------0----0------|PM ... . . . . . . . . .
----------------------------------------------------------------------------
[Riff 12, Guitar 1 & 2] - [02:32] - [02:43]- -----------------------------------------------------------------|- -----------------------------------------------------------------|- -----------------------------------------------------------------|- -7-7-7-7-7-7-7---------------------------------------------------|- -5-5-5-5-5-5-5-8-8-8-8-8-8-8-8-8-3-3-3-3-3-3-3-5-5-5-5-5-5-5-5-5-|- ---------------8-8-8-8-8-8-8-8-8-3-3-3-3-3-3-3-5-5-5-5-5-5-5-5-5-|
PM ...............................................................-- -----------------------------------------------------------------|- -----------------------------------------------------------------|- -----------------------------------------------------------------|- -3-3-3-3-3-3-3-3-5-5-5-5-5-5-5-5-3-3-3-3-3-3-3-3-5-5-5-5-5-5-5-5-|- -----------------------------------------------------------------|- -----------------------------------------------------------------|PM .......................................................
- -----------------------------------------------------------------|- -----------------------------------------------------------------|- -----------------------------------------------------------------|- -7-7-7-7-7-7-7-3-3-3-3-3-3-3-3-3-5-5-5-5-5-5-5-7-7-7-7-7-7-7-7-7-|- -5-5-5-5-5-5-5-3-3-3-3-3-3-3-3-3-5-5-5-5-5-5-5-7-7-7-7-7-7-7-7-7-|- ---------------3-3-3-3-3-3-3-3-3-5-5-5-5-5-5-5-7-7-7-7-7-7-7-7-7-|
-- -----------------------------------------------------------------|- ---------------6-6-6-6-6-6-6-6-6-8~--8~--8---10~---10~-10~-------|- -----------------------------------------------------------------|- -3-3-3-3-3-3-3---------------------------------------------------|- -----------------------------------------------------------------|- -----------------------------------------------------------------|
----------------------------------------------------------------------------
[Riff 14a] - [02:43] - [02:52]- ------------------------------------------------10--10-13/15-13-15/17----|- ------------------------------------10h13p10--13--13---------------------|- -----------10h12p10-12brb-10----------------12---------------------------|- ------10h12-----------------12-------------------------------------------|- -10h12-------------------------------------------------------------------|- -------------------------------------------------------------------------|
- -22p17p15h17-22p17p15h17-22p17p15h17-22p17p15h17-22p17p15h17-22p17p15h17-|- -------------------------------------------------------------------------|- -------------------------------------------------------------------------|- -------------------------------------------------------------------------|- -------------------------------------------------------------------------|- -------------------------------------------------------------------------|
- -22p17p15h17-22p17p15h17----------------------15-17-15-------------------|- -------------------------18-15----------15-18----------18-15\------------|- -------------------------------17-14-17------------------------9--10~----|- ---------------------------------------------------------------10-12~----|- -------------------------------------------------------------------------|- -----------------------------(Two different guitars ___________^^^^^ )---|
[Riff 14b] - [02:43] - [02:52]- -----------------|- -----------------|- -----------------|- -7-3-3-5-7-3-5-7-| strum for 1 bar each behind riff 14a- -5-1-3-5-5-3-5-7-|- -----3-5---3-5-7-|
----------------------------------------------------------------------------
[Riff 15] - [02:52] - [03:11]----| 8x- -------------------------------|- -------------------------------|- -------------------------------|- -------------------------------|- -00000-0-0-0-0-00000-0-0-0-----|- -00000-0-0-0-0-00000-0-0-0-----|PM .........................
---------------------------------------------------------------------------- [Riff 15] - [03:11] - [03:28] - 6x
- -------------------------------------|- -------------------------------------|- -------------------------------------| play riff 15 6x then end with this.- -------------------------------------|- -00000-0-0-0-0-00000-0-0-0-0-0-0-0-0-|- -00000-0-0-0-0-00000-0-0-0-0-0-0-0-0-|PM ...................................
[Riff 16] - [03:11] - [03:28]-----------------------| 2x- -------------------------5-5---------5-5----------|- -6-6---------6-6-------------6-6---------6-6------|- -----7-7---------7-7-------------7-7---------7-7--|- ---------8-8---------8-8--------------------------|- --------------------------------------------------|- --------------------------------------------------|
- -------------------------------------------------|- -5-5---------5-5---------6-6---------6-6---------|- -----5-5---------5-5---------7-7---------7-7-----|- ---------5-5---------5-5---------7-7---------7-7-|- -------------------------------------------------|- -------------------------------------------------|
---------------------------------------------------------------------------- [Riff 16] - [03:28] - [03:45] - 2x
[Riff 17] - [03:28] - [03:45]---------------------------------------| 2x- ---------------------------------8-8-------------8-8--------------|- -10-10-----------10-10---------------10-10-----------10-10--------|- -------10-10-7-7-------10-10-7-7-----------10-10-----------10-10--|- ------------------------------------------------------------------|- ------------------------------------------------------------------|- ------------------------------------------------------------------|
- -----------------------------------------------------------------|- -8-8-----------8-8-----------10-10-------------10-10-------------|- -----9-9-----------9-9-------------10-10-------------10-10-------|- ---------10-10---------10-10-------------10-10-------------10-10-|- -----------------------------------------------------------------|- -----------------------------------------------------------------|
[Riff 18] - [03:28] - [03:45]-----------------| 2x- --------------------------------------------|- --------------------------------------------|- --------------------------------------------|- -8-7-5-5- play two bars each behind riff 17-|- -8-5-3-5------------------------------------|- -8-----5------------------------------------|
----------------------------------------------------------------------------
[Riff 19, Guitar 1 & 2] - [03:45] - [03:54]- -------------|- -------------|- -------------|- -0~----------|- -0~----------|- -0~----------|
-- -------------|- -6-6---------|- -----7-7-----|- ---------7-7-| repeat until end.- -------------|- -------------|PM ...........
---------------------------------------------------------------------------- ---------------------------------------------------------------------------- ---------------------- [03. Ocean Of Apathy] - [03:57] --------------------- ---------------------------------------------------------------------------- ----------------------------------------------------------------------------
[Riff 1] - [00:00] - [00:33]----------------------------------| 5x- ------------------------------------------------------------|- ---------------------11p10------------------------11p10-----|- --------------9h10p7-------10--------------9h10p7-------10--|- -------8h10p7-----------------------8h10p7------------------|- -8-8-8------------------------8-8-8-------------------------|- ------------------------------------------------------------|PM ..... .....
- ------------------------------10p9----------------------------|- ---------------------11p10---------11p10----------------------|- --------------9h10p7-------10------------10----9h10-----------|- -------8h10p7-------------------------------12------12--------|- -8-8-8-------------------------------------------------8h10p7-|- --------------------------------------------------------------|PM .....
[Riff 2] - [00:00] - [00:06]- ------------------------------------|- ------------------------------------|- ------------------------------------|- -7~------7~------8~------5-5-5-12\--|- -5~------5~------8~------5-5-5-12\--|- -----------------8~------5-5-5-12\--|
[Riff 3] - [00:06] - [00:20]------------------------| 2x- --------------------------------------------------|- --------------------------------------------------|- --------------------------------------------------|- -5-5-5-5-5-3-5-5-5-5-5-3-5-5-5-5-5-1-1-1-1-3-3-3--|- --------------------------------------------------|- --------------------------------------------------|PM ...............................................
- -------------------------------------------------|- -------------------------------------------------|- -------------------------------------------------|- -5-5-5-5-5-3-5-5-5-5-5-3-5-5-5-5-5-1-1-1-1-1-1-1-|- -------------------------------------------------|- -------------------------------------------------|PM ...............................................
[Riff 4] - [00:20] - [00:33]------------------------| 2x- --------------------------------------------------|- --------------------------------------------------|- -7-7-7-7-7-5-7-7-7-7-7-5-7-7-7-7-7-3-3-3-3-5-5-5--|- -5-5-5-5-5-3-5-5-5-5-5-3-5-5-5-5-5-1-1-1-1-3-3-3--|- --------------------------------------------------|- --------------------------------------------------|
- -------------------------------------------------|- -------------------------------------------------|- -7-7-7-7-7-5-7-7-7-7-7-5-7-7-7-7-7-3-3-3-3-3-3-3-|- -5-5-5-5-5-3-5-5-5-5-5-3-5-5-5-5-5-1-1-1-1-1-1-1-|- -------------------------------------------------|- -------------------------------------------------|
----------------------------------------------------------------------------
[Riff 5, Guitar 1 & 2] - [00:33] - [00:36]- ----------------------------------|- ----------------------------------|- ----------------------------------|- -0--------------------------------|- -0--------------------------------|- -0-000000000000000000000000000000-|
PM ..............................-- ----------------------------------|- ----------------------------------|- ----------------------------------|- ----------------------------------|- -----------------5555555555555555-|- ----------------------------------|PM ................
----------------------------------------------------------------------------
[Riff 6] - [00:36] - [00:46]---------------------------------------------| 2x- -----------------------------------------------------------------------|- -----------------------------------------------------------------------|- -----------------------------------------------------------------------|- -0----------------7/11\8------------7/11\8-----------------------------|- -0----------------7/11\8------------7/11\8------------8-0-8-0-11-0-11--|- -0-00000077887700-7/11\8-0077887700-7/11\8-0077887700-8-0-8-0-11-0-11--|PM .............. .......... ..........................
[Riff 7] - [00:46] - [00:57]-----------------------------------------------| 2x- -------------------------------------------------------------------------|- -------------------------------------------------------------------------|- -------------------------------------------------------------------------|- -0--------7/11\8------------7/11\8------------7/11\8---------------------|- -0--------7/11\8------------7/11\8------------7/11\8----6-5-0-4-0-3-2-0--|- -0-000000-7/11\8-0000000000-7/11\8-0000000000-7/11\8-00-6-5-0-4-0-3-2-0--|PM ...... .......... .......... ..................
----------------------------------------------------------------------------
[Riff 8] - [00:57] - [00:59]- -------------------------|- -8h7---------------------|- -----8h7-----------------|- ---------8h7-----8---4---|- -------------8h7-8---4---|- -----------------8---4---|
-- -------------------------|- -------------------------|- -------------------------|- -----------------8---4---|- -----------------8---4---|- -----------------8---4---|
----------------------------------------------------------------------------
[Riff 9] - [00:59] - [01:25]- ------------------------------8h7----------------------------------|- ----------------------------------8h7------------------------------|- --------------------------------------8h7--------------------------|- -----------------[7~]---------------------8h7-----------------[7~]-|- -0-00-00-4h7p4p0------0-00-00-----------------0-00-00-4h7p4p0------|- -0-00-00--------------0-00-00-----------------0-00-00--------------|PM ....... ....... .......
- ------------------|---------|-----------|- -----------(1st)--|--(2nd)--|--(3rd)----| (<- Diffferent Ends To Riff)- ------------------|---------|-----------|- ---------8/11-8\7-|-3\1-1/4-|-----------|- -0-00-00-8/11-8\7-|-3\1-1/4-|-8-11-8-7--|- -0-00-00-8/11-8\7-|-3\1-1/4-|-8-11-8-7--|PM ....... ........
----------------------------------------------------------------------------
[Riff 10, Guitar 1 & 2] - [01:25] - [01:29]- ---------------------------------|- ---------------------------------|- ---------------------------------|- -------------3---2---------------|- -1-----------------------0-------|- ---------------------------------|
PM .......................AT ...............................-- ---------------------------------|- ---------------------------------|- ---------------------------------|- -------------7---5---------------|- -5-----------------------4-------|- ---------------------------------|PM .......................AP...............................
----------------------------------------------------------------------------
[Riff 11, Guitar 1 & 2] - [01:29] - [01:41] - 3--|5x- -----------------------------------------------|- -----------------------------------------------|- -----------------------------------------------|- ----------------------------5-7-5--------------|- -5--------------------------------7------------|- -------------7---8-----------------------------|
AP ..................................-- ------------------------------------|- ------------------------------------|- ---------7-6-7----------------------|- ---7-8-7-------7---0h7h8------------|- -5---------------8-------10-7-8-0-0-|- --------------------------------0-0-|PM ...
----------------------------------------------------------------------------
[Riff 12, Guitar 1 & 2] - [01:41] - [01:44]- -----------------------------------------------------15---|- -----------------------------------10-11-13-11-15-11------|- ------------6-----6-7-9-10-9-10-12------------------------|- --------7-8---7-8-----------------------------------------|- -7-8-10---------------------------------------------------|- ----------------------------------------------------------|
PM .......... ...-- ----------------------------------------------------------|- ----------------------------------------------------------|- ----------------------------------------------------------|- -5------------7------------8----------------5-------------|- -5------------7------------8----------------3-------------|- -5------------7------------8------------------------------|
----------------------------------------------------------------------------
[Riff 13] - [01:44] - [02:06]- ----------15-------15-------15-------|- -------13----13-------13-------13----|- -12h14----------14-------14-------14-|- -------------------------------------|- -------------------------------------|- -------------------------------------|
- -------------------12----15p12-------|- -15p13----15p13-------13-------13----|- -------12-------12----------------12-|- -------------------------------------|- -------------------------------------|- -------------------------------------|
- -------------------------------------|- -------------------------------12h15-|- -12-------12----------------12-------|- ----15p14----15p14-------14----------|- -------------------12h15-------------|- -------------------------------------|
- -15----------------12----------------|- ----15p12-------13----13p12----------|- ----------12h14-------------12-------|- -------------------------------14/17-|- -------------------------------------|- -------------------------------------|
- -15----------------------10h20p15----|- ----18p17-------------17----------17-|- ----------17-------17----------------|- -------------17h19-------------------|- -------------------------------------|- -------------------------------------|
- -15----------------------10h22p15----|- ----18p17-------------17----------17-|- ----------17-------17----------------|- -------------17h19-------------------|- -------------------------------------|- -------------------------------------|
- ----------15-------17-------19-------|- -17h18p17----18p17----18p17----18p17-|- -------------------------------------|- -------------------------------------|- -------------------------------------|- -------------------------------------|
- -19-------20----/20-20-22-22-24-24\--|- ----18p17----18----------------------|- -------------------------------------|- -------------------------------------|- -------------------------------------|- -------------------------------------|
- ----------15-------15-------15-------|- -------13----13-------13-------13----|- -12h14----------14-------14-------14-|- -------------------------------------|- -------------------------------------|- -------------------------------------|
- -------------------12----15p12-------|- -15p13----15p13-------13-------13----|- -------12-------12----------------12-|- -------------------------------------|- -------------------------------------|- -------------------------------------|
- -------------------------------------|- -------------------------------12h15-|- -12-------12----------------12-------|- ----15p14----15p14-------14----------|- -------------------12h15-------------|- -------------------------------------|
- -15----------------12----------------|- ----15p12-------13----13p12----------|- ----------12h14-------------12-------|- -------------------------------14/17-|- -------------------------------------|- -------------------------------------|
[Riff 14, Guitar 1 & 2] - [02:06] - [02:10]- -15p13p12----------------------------|- ----------13-------------------------|- ---------------12-12/14---14---------|- -------------------------------------|- -------------------------------------|- -------------------------------------|
-- -------------------------------------|- -17p15p13----------------------------|- ----------14-------------------------|- ---------------14-14/15---15---------|- -------------------------------------|- -------------------------------------|
- -15p12-------------------------------|- -------13p12---13-13/15---15---------|- -------------------------------------|- -------------------------------------|- -------------------------------------|- -------------------------------------|
-- -------------------------------------|- -17p13-------------------------------|- -------14p12---14-14/16---16---------|- -------------------------------------|- -------------------------------------|- -------------------------------------|
[Riff 15] - [02:10] - [02:14]- -------------------------------------|- -------------------------------------|- ----------------13-------13-13-14-16-|- -15-14-14-14-15----14-15-------------|- -------------------------------------|- -------------------------------------|PM .............. .....
- -------------------12-13-15-16-------|- ----------12-13-15-------------------|- -13-14-16----------------------------|- -------------------------------------|- -------------------------------------|- -------------------------------------|
Tap to rate this tab
 
# A B C D E F G H I J K L M N O P Q R S T U V W X Y Z