August Burns Red - Boys Of Fall tab

cgcfad


Riff 1 left side repeats 3 times 0:00-0:26

-------------------------------__------------------------------__------|------------------------------/ \----------------------------/ \-----|-----10---------10-----------9-10-9-----10---------10--------7-9-10----|----------7----------7---8-------------------7---------7---8-----------|-pm-----*----**----*---*---*---------**----*----**---*---*-------------|-00-----0----00----0---0---0---------00----0----00----0---0------------|
-------------------------------__----------------------------------------12|------------------------------/ \------------------------10-------10--10--|-----10---------10-----------9-10-9--10-12-9-10-12-9-10-12--9-10-12--12----|----------7----------7---8-------------------------------------------------|-pm-----*----**----*---*---*-----------------------------------------------|-00-----0----00----0---0---0-----------------------------------------------|
Riff 1 right side 0:00-0:17
---------------------------------------------------------------------|--------------------------------------------cont.same as left side---|----------------------------------9/10-14----------------------------|-*-*---*-*----*---*---*-*-*---*-*------------------------------------|-0-0---0-0----0---0---0-0-0---0-0---------0--------------------------|-0-0---0-0----0---0---0-0-0---0-0---------0--------------------------|
Riff 1 right side harmony 0:17-0:26
--------------------------------__--------------------------------__---|-------------------------------/ \------------------------------/ \--|----14---------14------------12-14-12-----14--------14---------10-12-14|---------12---------12--12---------------------12-------12--12---------|-**----*----**----*----*---*-----------**----*----**---*---*---*-------|-00----0----00----0----0---0-----------00----0----00---0---0---0-------|
--------------------------------__-----------------------------------------------|-------------------------------/ \--------------------------------------------13|----14---------14------------12-14-12------------------------------------10--10--|---------12---------12--12------------12-14-10-12-14-10-12-14-15-10-12-14--14----|-**----*----**----*----*---*-----------------------------------------------------|-00----0----00----0----0---0-----------------------------------------------------|
Riff 2 melody repeats 2 times 0:26-0:43
-semi pm'd throughout---3 times--------|----------------------------------------|---------------------------------------|----------------------------------------|---------------------------------------|----14-14--14-----14---14-----14-----14-|---------------------------------------|-12------12--12-12---12--15-12--15-12---|-0-8-12-0-8-12-0-12-0-8-12-0-8-12-8-12-|----------------------------------------|---------------------------------------|----------------------------------------|
Riff 2 rythm 0:26-1:02 -----------------------------------------------------------------------|-----------------------------------------------------------------------|-7-77777-10-1010-5-55--5-555555555555555-101010101010101010101010101010|-x-xxxxx-x--x-x--x-xx--x-xxxxxxxxxxxxxxx-x--x-x-x-x-x-x-x-x-x-x-x-x-x-x|-5-55555-8--8-8--3-33--3-333333333333333-8--8-8-8-8-8-8-8-8-8-8-8-8-8-8|-----------------------------------------------------------------------|
------------------2 times-|--------------------------|-7-77777--9-99-10-101010--|-x-xxxxx--x-xx-x--x-x-x---|-5-55555--7-77-8--8-8-8---|--------------------------|
-----------------------------------------------------------------------------------------------------------------------------------------------7-77777-10-1010-5-55--5-555555555555555-101010101010101010101010101010-x-xxxxx-x--x-x--x-xx--x-xxxxxxxxxxxxxxx-x--x-x-x-x-x-x-x-x-x-x-x-x-x-x-5-55555-8--8-8--3-33--3-333333333333333-8--8-8-8-8-8-8-8-8-8-8-8-8-8-8-----------------------------------------------------------------------
------------------|------------------|
-5555555555555555-|-xxxxxxxxxxxxxxxx-|-3333333333333333-|------------------|
----------------------------------------------------------------------------------------|----------------------------------------------------------------------------------------|-7-77777-10-1010-5-55--5-555555555555555-1010-10-10-10-10-10-14x14141414414141414141414-|-x-xxxxx-x--x-x--x-xx--x-xxxxxxxxxxxxxxx-x--x--x--x--x--x--x--x-x-x-x-x-x-x-x-x-x-x-x-x-|-5-55555-8--8-8--3-33--3-333333333333333-8--8--8--8--8--8--8-12121212121212121212121212-|----------------------------------------------------------------------------------------|
solo0:43-0:48 __ / \--------------------------------------------------10-13-10------------------------|--------------------------------------------13-10----------13-10-13-10------------|-------------10---------------10---14-10-10----------------------------12-10-12/14|-10-12-10-12----10--12--10-12-----------------------------------------------------|----------------------------------------------------------------------------------|----------------------------------------------------------------------------------|
0:49-0:53-----------------------------------------------------------------------------------|--------------13-------------------------------------------------------------------|---10-------------------10--------14-------12-10---------10------------------------|-12--12-10-12---12-10-12--12-10-12---12-10-------12-10-12--12-10---------10--------|-----------------------------------------------------------------12-10-12--12-10-8-|-----------------------------------------------------------------------------------|
0:53-0:58---------------------------------------------------------------------------------|-------------------------------------------------------------------------18-13-15|----------------------------------------------------10-----------------14--------|-------------------------------10---------------5-8---10/12-15-12-15/17----------|---8--------10--------8----------10\8-8-10-8-10----------------------------------|-12-12-10-12--12-10-12-12-10-12--------------------------------------------------|
0:58-1:02 )( -17-----------------------------------------------------|------18-------------ph---------------------------------|---------15--17--14~-14~--------------------------------|--------------------------------------7-----------------|-------------------------10-12-12-7-8---8-7--harmonic---|---------------------------------------------5----------|
Riff 4 all palm muted 1:02-1:25
------------------------------------------------------------------------------------|------------------------------------------------------------------------------------|------------------------------------------------------------------------------------|------------------------------------------------------------------------------------|-00-00-00000-00-00-00000-00000-00-00-00-00-00-00-0000-00-00-00000-00-00-00-00-00000-|-00-00-00000-00-00-00000-00000-00-00-00-00-00-00-0000-00-00-00000-00-00-00-00-00000-|
-----------------------------------------------------------------------------|-----------------------------------------------------------------------------|-----------------------------------------------------------------------------|-----------------------------------------------------------------------------|-00-00-00-00-00-00-0000-00-00-00-00-00-00|00|00|00000|-00-00-00-00-00-00-0000|-00-00-00-00-00-00-0000-00|00|00|00|00|00|00|00|00000|-00|00|00|00|00|00|0000|
-------------------------------------------------------|-------------------------------------------------------|-------------------------------------------------------|-------------------------------------------------------|-00-00-00000-00-00-00-00-00000--00-00-00-00-00-00-0000-|-00-00-00000-00-00-00-00-00000--00-00-00-00-00-00-0000-|
Riff 5 right side 1:25-1:43
-----------------------------------------------------------|-----------------------------------------------------------|----14-------14-------14-------15-------15-------15-14-----|-12---15--12---15--12----15-14---17-14----17--14------15-14|---*----*---*-----*--*--*--*--*----*---*----*----*---------|---0----0---0-----0--0--0--0--0----0---0----0----0---------|
--------------------------------------------------------------------------|--------------------------------------------------------------------------|----14-------14--------15-14--------------------------9-10-9--------------|-12---15--12---15--12---------12-13-12-13-14-12-14-12--------11-12--------|------------------------------------------------------------------12-13-10|---0----0---0-----0--0---0--0---------------------------------------------|
1;43-1:51-----------------------------------------------------------|-----------------------------------------------------------|----14-------14-------14-------15-------15-------15-14-----|-12---15--12-------12----15-14---17-14----17--14------15-14|---*----*---*---*-*--*--*--*--*----*---*----*----*---------|---0----0---0---0-0--0--0--0--0----0---0----0----0---------|
---------------------------------------------------------------------|---------------------------------------------------------------------|----14-------14--------15-14--------------------------9-10-9---------|-12---15--12-------12---------12-13-12-13-14-12-14-12--------11-12---|---*----*---*---*-*--*---*--*-------------------------------------12-|---0----0---0---0-0--0---0--0----------------------------------------|
rythm 1;43-1:51-----------------------------------------------------twice---------|-----------------------------------------------------------------------|-----10-10-1010101010-10-101010101010--6-6--6-6-6-6-6--6-6-6-6-6-6-6---|9----7--7--7-7-7-7-7---7-7-7-7-7-7-7---7-7--7-7-7-7-7--7-7-7-7-7-7-7---|--11-------------------------------------------------------------------|-----------------------------------------------------------------------|----
Riff 6 1:51-1:59
right left-----------------------5-9-5|-9/12|-------------------------------|-----|-6-5-----8-6-----8-6-8------|-----|------------------------6-10-6-|10/14|-----7-6-----9-6------------|-----|-7-6-----9-7------9-7-9--------|-----|----------------------------|-----|-----8-7-----11-8--------------|-----|----------------------------|-----|-------------------------------|-----|--------4 times-------------|-----|-------------------------------|-----|
Riff 7 1:59-2:28
----pm'd throughout-----------------------------------------------|------------------------------------------------------------------|------------------------------------------------------------------|------------------------------------------------------------------|-0000-0000000-0000-000-0000-0000000-0000-000-0000-0000000-0000-000|-0000-0000000-0000-000-0000-0000000-0000-000-0000-0000000-0000-000|
___ ^------------------|--/ \----6-9|--------------------|------------------|-5-6-5-6-8----|-----------8-11-----|------------------|--------------|-6-7-6-7-9----------|------------------|--------------|--------------------|0000-0000000-0000-|--------------|--------------------|0000-0000000-0000-|right side----|----left------------|
------------------------------------------------------------------|--semi pm'd throughout--------------------------------------------|------------------------------------------------------------------|---------------------------------------------1111-1111111-1111-111|-0000-0000000-0000-000-0000-0000000-0000-000-1111-1111111-1111-111|-0000-0000000-0000-000-0000-0000000-0000-000-0000-0000000-0000-000|
___------------------|--/ \----6-9|--------------------|------------------|-5-6-5-6-8----|-----------8-11-----|------------------|--------------|-6-7-6-7-9----------|4444-4444444-4444-|--------------|--------------------|4444-4444444-4444-|--------------|--------------------|0000-0000000-0000-|right side----|--------------------|
Riff 1 repeats
2:37-2:46------------------------------------------------------------|------------------------------------------------------------|------------------------------------------------------------|------------------------------------------------------------|-0-000-8-8888--0-0-0-8-8888-8--0-000-8-8888--0-0-0-8-8888-10|-0-000-8-8888--0-0-0-8-8888-8--0-000-8-8888--0-0-0-8-8888-10|
Riff8 2:46-2:54
--------------------------------------------------------------------------------|--------------------------------------------------------------------------------|--------------------------------------------------------------------------------|--------------------------------------------------------------------------------|0--0-0-0-8-8--8-8-8---0-0-0-8-8-8-8-8-3-0--0-0-0-8-8--8-8-8---0-0-0-8-8-8-8-8-10|0--0-0-0-8-8--8-8-8---0-0-0-8-8-8-8-8-3-0--0-0-0-8-8--8-8-8---0-0-0-8-8-8-8-8-10|
solo 2:54-3:10 ) ( ) (-12-------12--13------------------^----12-------12-13--17-17-15-18-------15-|-------15--------10-10----------10-11--------15--------------------15-17----|------------------------------10--------------------------------------------|---------------------------12-----------------------------------------------|------------------------15--------------------------------------------------|----------------------------------------------------------------------------|
) ( ) (-12-------12--13------------------^----12-------12-13--17-17-15-------------|-------15--------10-10----------10-11--------15-----------------18-17-13----|------------------------------10----------------------------------------12--|---------------------------12-----------------------------------------------|------------------------15--------------------------------------------------|----------------------------------------------------------------------------|
Riff 9 rythm 3:11-3:28--------------------------------------|-----6-----------------11--------15---|-----5--------7--------10--------14---|-3---3----0---0---8----8-----12--12---|-3---3----0---0---8----8-----12--12---|-3---3----0---0---8----8-----12-------|
3:28-3:45--------------------------------|--------------------------------|--------------------------------|--------------------------------|--------------------------------|-0-0-0-0-0-0-0-0-0-0-0-0-0-0-0-0|
-------------------------------------------------|-------------------------------------------------|-------------------------------------------------|-------------------------------------------------|-------------------------------------------------|-12-12-12-12-12-12-12-12-12-12-12-12-12-12-12-12-|
------------------------------------------------|------------------------------------------------|------------------------------------------------|------------------------------------------------|------------------------------------------------|-10-10-10-10-10-10-10-10-10-10-10-10-10-10-10-10|
----------------------------------------------------------------|----------------------------------------------------------------|----------------------------------------------------------------|----------------------------------------------------------------|----------------------------------------------------------------|-3-3-3-3-3-3-3-3-3-3-3-3-3-3-3-3-8-8-8-8-8-8-8-8-8-8-8-8-8-8-8-8|
----------------------------------------------------------------|----------------------------------------------------------------|----------------------------------------------------------------|--------------------------------7-7-7-7-7-7-7-7-7-7-7-7-7-7-7-7-|8-8-8-8-8-8-8-8-8-8-8-8-8-8-8-8---------------------------------|----------------------------------------------------------------|
----------------------------------|----------------------------------|----------------------------------|----------------------------------|----------------------------------|-0-0-0-0-0-0-0-0-0-0-0-0-0-0-0-0--|
Riff 9 melody 3:11-3:29
-----------------twice--------------|--------------twice---------------|------------------------------------|----------------------------------|------------------------------------|----------------------------------|-------------10-10-10-10------------|-------------10-10----------------|-8-8-7-7-8-8-------------8-8-8-8-8-8|-----7-7-8-8-------8-8-7-7-7-7-7-7|------------------------------------|-7-7------------------------------|
-------------------------------------------------------------------|-------------------------------------------------------------------|-------------------------------------------------------------------|--------7-7-10-10-8-8---------------------7-7-12-12-7-7------------|----8-8---------------8-8-8-8-8-8-----8-8---------------8-8-8-8-8-8|8-8-------------------------------8-8------------------------------|
---------------------------------------------------|---------------------------------------------------|---------------------------------------------------|-------------12-12-15-15-12-12---------------------|-------12-12-------------------12-12-12-12-12-12---|-12-12---------------------------------------------|
-------------------------------------------------|-------------------------------------------------|-------------------14-14-------14-14-14-14-14-14-|-12-12-------12-12-------12-12-------------------|-------12-12-------------------------------------|-------------------------------------------------|
3:30-end repeats 3 times
-------------------------------------------------|----------------------------twice----------------|-------------------------------------------------|-------------------15-15-------------------------|-------12-12-13-13-------13-13-12-12-12-12-12-12-|-12-12-------------------------------------------|
-------------------------------------------------|-------------------------------------------------|-------------------------------------------------|-------------------15-15-------------------------|-------12-12-13-13-------13-13-12-12-12-12-12-12-|-10-10-------------------------------------------|
----------------------------------------__-------|---------------------------------------/ \------|-------------------------------------10-12-10----|-------------------15-15-------------------------|-------12-12-13-13-------13-13-12-12-------------|-10-10-------------------------------------------|
-------------------------------------------|-------------------------twice-------------|---------------10-10-----------------------|---------12-12-------12-12-----------------|-----8-8-------------------8-8-8-8-8-8-----|-8-8---------------------------------------|
---------------------------------------------|---------------------------------------------|---------------------------------------------|-----------12-12-15-15-12-12-----------------|------12-12-----------------12-12-12-12-12-12|-12-12---------------------------------------|
-----------------------------------------------|-------------------------------------__--------|------------------------------------/ \-------|-----------12-12-15-15-12-12------15-14-15-----|------12-12-----------------12-12--------------|-12-12-----------------------------------------|
rythm 3:45- end repeats twice each chord downpicked x16
---------------------------------------------|----------6------11---15---------------------|-7--------5------10---14---------------------|-0--------3------8----12---------------------|-0--------3------8----12---------------------|---------------------------------------------|
Tap to rate this tab
 
# A B C D E F G H I J K L M N O P Q R S T U V W X Y Z