August Burns Red - Pangaea tab version 1

[Pangaea]
[Leveler]
[August Burns Red]

Tuning: CGCFAD (Drop C / 1 Step Down From Drop D)
joshuaoliveira@hotmail.com

As Requested By: JRohrer14

[Riff 1] - [00:00] - [00:11]- -----------------------------------------------------------------|- -----------------------------------------------------------------|- -----------------------------------------------------------------|- -5~----------------------------------------------------------10\-|- -5~----------------------------------------------------------10\-|- -5~----------------------------------------------------------10\-|
[Riff 2] - [00:00] - [00:32----------------------------------| - [3x]- -----------------------------------------------------------|- -----------------------------------------------------------|- -7-0-5-7-0-3-0-7-0-5-7-0-8-0-7-0-5-7-0-3-0-7-0-5-7-0-10-0--|- -----------------------------------------------------------|- -----------------------------------------------------------|- -----------------------------------------------------------|AP ........................................................
- ----------------------------------------------------------|- ----------------------------------------------------------|- -7-0-5-7-0-3-0-7-0-5-7-0-8-0-7-0-5-7-0-3-0-7-0-5-7-0-12-0-|- ----------------------------------------------------------|- ----------------------------------------------------------|- ----------------------------------------------------------|AP ........................................................
----------------------------------------------------------------------------
[Riff 3] - [00:11] - [00:32----------------------------------| - [2x]- -----------------------------------------------------------|- -----------------------------------------------------------|- -----------------------------------------------------------|- -----------------------------------------------------------|- -5555----3-55555---33555-111-5555--335555555---3355551111--|- -5555----3-55555---33555-111-5555--335555555---3355551111--|PM ........................................................
----------------------------------------------------------------------------
[Riff 4] - [00:32] - [00:38]- -------------------------1~---------------------------------------|- -------------------------3~---------------------------------------|- -------------------------0~---------------------------------------|- -5~----0~----1~------------------------------------\\\\\\\\\\\\\\-|- -5~----0~----1~------------------------------------\\\\\\\\\\\\\\-|- -5~----0~----1~------------------------------------\\\\\\\\\\\\\\-|
----------------------------------------------------------------------------
[Riff 5] - [00:38] - [00:48]- -----------------------------------------------------------------|- -------------------8-----6/8---------------8-----6h8p6-----------|- -------7-------------7-----------------7-----7--------7h8-5h7----|- ---8-------------------8-----------8-----------8-------------7h8-|- -----------------------------------------------------------------|- -5---5---5-555-5-5-----------555-5---5---5-----------------------|PM . . ......... ..... . .
- ---------------------------------------------------5h6/10p8------|- -------3-----------3-----3/4-------6------------6/8--------10h11-|- ---3-----------------3-----------------5-------------------------|- -----------------------5-----------------------------------------|- -----------------------------------------------------------------|- -1---1---1-111-1-1-----------111-3---3---3-333-3-----------------|PM . . ......... ..... . .......
[Riff 6, Guitar 1 & 2] - [00:48] - [00:58]- -------------------6-----5/6---------------6-----5h6p5-----------|- -------6-------------6-----------------6-----6--------6h8-4h6----|- ---7-------------------7-----------7-----------7-------------5h7-|- -5---5---5-555-5-5-----------555-5---5---5-----------------------|- -----------------------------------------------------------------|- -----------------------------------------------------------------|
PM . . ......... ..... . .-- -----------------------------------------------------------------|- -------------------8-----6/8---------------8-----6h8p6-----------|- -------7-------------7-----------------7-----7--------7h8-5h7----|- ---8-------------------8-----------8-----------8-------------7h8-|- -----------------------------------------------------------------|- -5---5---5-555-5-5-----------555-5---5---5-----------------------|PM . . ......... ..... . .
- -------1-----------1-----1/3-------5------------------------------|- ---3-----------------3-----------------6-----------6h8/11p10-13---|- -----------------------3------------------------7/8------------10-|- -1---1---1-111-1-1-----------111-3---3---3-333-3------------------|- ------------------------------------------------------------------|- ------------------------------------------------------------------|
PM . . ......... ..... . .......-- ---------------------------------------------------5h6/10p8-11----|- -------3-----------3-----3/4-------6------------6/8------------10-|- ---3-----------------3-----------------5--------------------------|- -----------------------5------------------------------------------|- ------------------------------------------------------------------|- -1---1---1-111-1-1-----------111-3---3---3-333-3------------------|PM . . ......... ..... . .......
----------------------------------------------------------------------------
[Riff 7, Guitar 1 & 2] - [00:58] - [01:01]- -----------------------------------------|- -----------------------------------------|- -----------------------------------------|- -5~--------------------------------------|- -5~--------------------------------------|- -5~--------------------------------------|
-- -----------------------------------------|- -----------------------------------------|- -----------------------------------------|- -------5---------5---------5---------5---|- ---5h6---6---5h6---6---5h6---6---5h6---6-|- -5---------5---------5---------5---------|PM . . . .
----------------------------------------------------------------------------
[Riff 8, Guitar 1 & 2] - [01:01] - [01:14]- -----------------------------------------|- -----------------------------------------|- -----------------------------------------|- -5~------------------5~------------------|- -5~------------------5~------------------|- -5~------------------5~------------------|
-- -----------------------------------------|- -----------------------------------------|- -----------------------------------------|- -------5---------5---------5---------5---|- ---5h6---6---5h6---6---5h6---6---5h6---6-|- -5---------5---------5---------5---------|PM . . . .
- -------------------------------------------------|- -------------------------------------------------|- -------------------------------------------------|- -8~----------------------8~----------------------|- -8~----------------------8~----------------------|- -8~----------------------8~----------------------|
-- -------------------------------------------------|- -------------------------------------------------|- -------------------------------------------------|- -----8h10/12-----8h10/12-----8h10/12-----8h10/12-|- ---8-----------8-----------8-----------8---------|- -8-----------8-----------8-----------8-----------|PM . . . .
- -------------------------------------------|- -------------------------------------------|- -------------------------------------------|- -1~------------------1~--------------------|- -1~------------------1~--------------------|- -1~------------------1~--------------------|
-- -----------------6-------6h10p6-------10p6-|- -------6-----------8p6h8--------8p6h8------|- -----7---7-----7---------------------------|- ---8---------8-----------------------------|- -6---------6-------------------------------|- -------------------------------------------|PM . .
- ------------------------------------------------|- ------------------------------------------------|- ------------------------------------------------|- -8~----------------------8~---------------------|- -8~----------------------8~---------------------|- -8~----------------------8~---------------------|
-- ------------------------------------------------|- ------------------------------------------------|- -------------------------------------------10\7-|- -----8h10/12-----8h10/12-----8h10/12-----8------|- ---8-----------8-----------8-----------8--------|- -8-----------8-----------8-----------8----------|PM . . . .
----------------------------------------------------------------------------
[Riff 9, Guitar 1 & 2] - [01:14] - [01:29]- -------------------------------------------------|- -------------------------------------------------|- -------------------------------------------------|- -5~----------------------8~----------------------|- -5~----------------------5~----------------------|- -5~----------------------5~----------------------|
-- -------------------------------------------------|- -------------------------------------------------|- -------------------------------------------------|- -------5-----------5-----------5-----------5-----|- ---5h6---6p5---5h6---6p5---5h6---6p5---5h6---6p5-|- -5-----------5-----------5-----------5-----------|PM . . . .
- --------------------------------------------------------------|- ----------------------------------------------11--------------|- -------------------------------------------------12-10--------|- -8~----------------------------12~--------------------12-10---|- -8~----------------------------8~--------------------------13-|- -8~----------------------------8~-----------------------------|
-- --------------------------------------------------------------|- --------------------------------------------------------------|- --------------------------------------------------------------|- --------8h10/12--------8h10/12--------8h10/12-10h12p10-8------|- ---8h10-----------8h10-----------8h10--------------------10p8-|- -8--------------8--------------8------------------------------|PM . . .
- ----------------------------------------------------|- ----------------------------------------------------|- ----------------------------------------------------|- -1~----------------------5~-------------------------|- -1~----------------------1~-------------------------|- -1~----------------------1~-------------------------|
-- -------------------6---6-----6h10p6-------6h10-8h11-|- -------6-------------8---6h8--------8p6h8-----------|- -----7---7-------7----------------------------------|- ---8-------8---8------------------------------------|- -6-----------6--------------------------------------|- ----------------------------------------------------|PM . .
- ----------------------------------------------------------------|- ----------------------------------------------------------------|- ----------------------------------------------------------------|- -8~----------------------------12~------------------------------|- -8~----------------------------8~-------------------------------|- -8~----------------------------8~-------------------------------|
-- -------------------------------------------------------------10-|- ----------------------------------------------------------11----|- ----------------------------------------------10----10h12-------|- --------8h10/12--------8h10/12--------8h10/12----12-------------|- ---8h10-----------8h10-----------8h10---------------------------|- -8--------------8--------------8--------------------------------|PM . . .
----------------------------------------------------------------------------
[Riff 10a] - [01:29] - [01:44]- -------------------------------------------------|- -------------------------------------------------|- -------------------------------------------------|- -------------------------------------------------|- -55555-------555-555-555-55555-------555-555-555-|- -55555-------555-555-555-55555-------555-555-555-|PM ...............................................
- -------------------------------------------------|- -------------------------------------------------|- -------------------------------------------------|- -------------------------------------------------|- -8-8-8-8-8-8-8-------88888-8-8-8-8-8-8-8-8-8-8-8-|- -8-8-8-8-8-8-8-------88888-8-8-8-8-8-8-8-8-8-8-8-|PM ...............................................
- -------------------------------------------------|- -------------------------------------------------|- -------------------------------------------------|- -------------------------------------------------|- -11111-----1-11111-----1-11111---1---11111---1---|- -11111-----1-11111-----1-11111---1---11111---1---|PM .............................................
- -------------------------------------------------|- -------------------------------------------------|- -------------------------------------------------|- -------------------------------------------------|- -8-8-8-8-8-8-8-------88888-8-8-8-8-8-8-8-8-8-8-8-|- -8-8-8-8-8-8-8-------88888-8-8-8-8-8-8-8-8-8-8-8-|PM ...............................................
[Riff 10b, Guitar 1 & 2] - [01:29] - [01:44]- -------------------------------------------------|- -------------------------------------------------|- -------------------------------------------------|- -------5-----------5-----------5-----------5-----|- ---5h6---6p5---5h6---6p5---5h6---6p5---5h6---6p5-|- -5-----------5-----------5-----------5-----------|PM . . . .
- --------------------------------------------------------------|- --------------------------------------------------------------|- --------------------------------------------------------------|- --------8h10/12--------8h10/12--------8h10/12-10h12p10-8------|- ---8h10-----------8h10-----------8h10--------------------10p8-|- -8--------------8--------------8------------------------------|
PM . . .-- ----------------------------------------------10--------------|- -------------------------------------------------11-----------|- ---------------------------------------------------12p10------|- --------------------------------------------------------13p12-|- --------------------------------------------------------------|- --------------------------------------------------------------|
- -------------------6---6-----6h10p6-------6h10-8h11-|- -------6-------------8---6h8--------8p6h8-----------|- -----7---7-------7----------------------------------|- ---8-------8---8------------------------------------|- -6-----------6--------------------------------------|- ----------------------------------------------------|PM . .
- -------------------------------------------------------------10-|- ----------------------------------------------------------11----|- ----------------------------------------------10----10h12-------|- --------8h10/12--------8h10/12--------8h10/12----12-------------|- ---8h10-----------8h10-----------8h10---------------------------|- -8--------------8--------------8--------------------------------|PM . . .
----------------------------------------------------------------------------
[Riff 11] - [01:44] - [01:53]- -----------------------------------------------------------------|- -----------------------------------------------------------------|- ---------------------------------------------------------7p3-----|- -------------5-5-7p5---7---8p7p5-------------5-5-8p7---------7p3-|- -----5-5-----------------------------5-5-------------8p5---------|- -5-5-----5-5---------5---5-------5-5-----5-5---------------------|PM ... ... . . ... ...
- ---------------------------------------------------------|- ---------------------------------------------------------|- -0---2---2h3p0-0---2---2h3p0-0---2---2h3p0-0---2---2h3p0-|- ---------------------------------------------------------|- ---------------------------------------------------------|- ---1---1---------1---1---------1---1---------1---1-------|PM . . . . . . . .
[Riff 12, Guitar 1 & 2] - [01:53] - [02:02]- -----------------------------------------------------------------|- -----------------------------------------------------------------|- ---------------------------------------------------------7p3-----|- -------------5-5-7p5---7---8p7p5-------------5-5-8p7---------7p3-|- -----5-5-----------------------------5-5-------------8p5---------|- -5-5-----5-5---------5---5-------5-5-----5-5---------------------|PM ... ... . . ... ...
- -------------------------------------------------------------|- -----------------------------------------------------3h6/8\--|- -0---2---2h3p0-0---2---2h3p0-0---2---2h3p0-/3--5-3h5---------|- -------------------------------------------------------------|- -------------------------------------------------------------|- ---1---1---------1---1---------1---1-------------------------|
PM . . . . . .-- -------------------------------------------------------8/10\-|- -------------------------------------------------------------|- -----5---5h7-------5---5h7-------5---5h7---/7--8-7h8h10------|- -8-----------8-8-----------8-8-----------8-------------------|- ---6---6---------6---6---------6---6-------------------------|- -------------------------------------------------------------|PM . . . . . .
----------------------------------------------------------------------------
[Riff 13a] - [02:02] - [02:17-----------------------| - [2x]- --------------------------------------------------|- --------------------------------------------------|- --------------------------------------------------|- -5-----------------------5------------------------|- -1-1-1-1-1-1-1-1-1-1-1-1-1-1-1-1-1-1-1-1-1-1-1-1--|- -1-1-1-1-1-1-1-1-1-1-1-1-1-1-1-1-1-1-1-1-1-1-1-1--|PM ..................... .....................
- -------------------------------------------------|- -------------------------------------------------|- -------------------------------------------------|- -8-----------------------8-----------------------|- -5-5-5-5-5-5-5-5-5-5-5-5-5-5-5-5-5-5-5-5-5-5-5-5-|- -5-5-5-5-5-5-5-5-5-5-5-5-5-5-5-5-5-5-5-5-5-5-5-5-|PM ..................... .....................
[Riff 13b] - [02:02] - [02:15------| - [7x]- ---------------------------------|- ---------------------------------|- -12p0-10h14p0-15p0-14p0-10/12p0--|- ---------------------------------|- ---------------------------------|- ---------------------------------|
[Riff 13c] - [02:09] - [02:15------| - [3x]- ---------------------------------|- ---------------------------------|- -15p0-14h17p0-19p0-17p0-14/15p0--|- ---------------------------------|- ---------------------------------|- ---------------------------------|
[Riff 14, Guitar 1 & 2] - [02:15] - [02:18]- ------------------------------------------------|- ------------------------------------------------|- -12p0-10h14p0-15p0-14p0-14/15p0-15~-------------|- ------------------------------------------------|- ------------------------------------------------|- ------------------------------------------------|
-- ------------------------------------------------|- ------------------------------------------------|- -15p0-14h17p0-19p0-17p0-17/19p0-19~-------------|- ------------------------------------------------|- ------------------------------------------------|- ------------------------------------------------|
----------------------------------------------------------------------------
[Riff 15] - [02:15] - [02:25]- -----------------------------------------------------------------|- -----------------------------------------------------------------|- -----------------------------------------------------------------|- -5~----8~----1~------------------5~----8~----1~------------------|- -5~----8~----1~------1---1---1---5~----8~----1~------------------|- -5~----8~----1~------1---1---1---5~----8~----1~------------------|PM .........
- -----------------------------------------------------------------|- -----------------------------------------------------------------|- -----------------------------------------------------------------|- -5~----8~----1~------------------5~----8~----1-----------1~------|- -5~----8~----1~----1-1---1-1-1-1-5~----8~----1-----------1~------|- -5~----8~----1~----1-1---1-1-1-1-5~----8~----1-----------1~------|PM .........
----------------------------------------------------------------------------
[Riff 16] - [02:25] - [02:54-| - [6x]- ---------------------------|- ---------------------------|- -7-12-3-3------------------| strum for one bar each- -5-10-1-1------------------|- -5-10-1-1------------------|- -5-10-1-1------------------|
[Riff 17, Guitar 1 & 2] - [02:35] - [02:56]- --------------------------------------------------|- --------------------------------------------------|- -10--12----------10h12p10-------------------------|- --------------------------13-12-10-12-10----------|- -----------------------------------------13-12-10-|- --------------------------------------------------|
- -----------------------------------10----|- ------------------------10p8-10h11----11-|- ---------------8----7h8------------------|- ------8p7h8h10---------------------------|- -8h10------------10----------------------|- -----------------------------------------|
-- -----------------------------------13----|- -----------------------------13h15-------|- --------------------------------------15-|- -----------------------------------------|- -----------------------------------------|- -----------------------------------------|
- ---------------------------------------|- ------------------------------------10-|- -7-------7-------10---10---12----10----|- ---8p7h8---8p7h8----8----8-------------|- ------------------------------10-------|- ---------------------------------------|PM . . ..
- -------------------------15----15/17-18p17-18/20-|- -11p10-11/13-15p13-15/16----16-------------------|- -------------------------------------------------|- -------------------------------------------------|- -------------------------------------------------|- -------------------------------------------------|
- -22br--18-----18h22br--18----18h20p18-----|- ----------20--------------20----------20--|- ------------------------------------------|- ------------------------------------------|- ------------------------------------------|- ------------------------------------------|
- ----------------------------------------------------|- -18h20p18-------------------------------------------|- ----------20p19-------------20p19-------------20p19-|- ----------------20p19-17/19-------20-17/19-20-------|- ----------------------------------------------------|- ----------------------------------------------------|
- -------------------------------------------------|- -------------18-------------18-------------------|- -19----17-------20-17h19-------20-17h19----17h19-|- ----17----17-------------17-------------17-------|- -------------------------------------------------|- -------------------------------------------------|
-- -------------------------------------------------|- -------------15p13----------15p13----------------|- -15----14----------14h15----------14h15----14h15-|- ----12----12-------------12-------------12-------|- -------------------------------------------------|- -------------------------------------------------|
- ----------------------------------------17-18br--17-|- -------------18-------------18-20p18h20-------------|- -------15/17----19-15-17/19-------------------------|- -15h17----------------------------------------------|- ----------------------------------------------------|- ----------------------------------------------------|
-- -------------------------------------------22br--20-|- ----------------------------------------------------|- ----------------------------------------------------|- ----------------------------------------------------|- ----------------------------------------------------|- ----------------------------------------------------|
- -18----17------------------------|- -------------20--------------\---|- ---------------------------------|- ---------------------------------|- ---------------------------------|- ---------------------------------|
-- -22----20------------------------|- -------------23--------------\---|- ---------------------------------|- ---------------------------------|- ---------------------------------|- ---------------------------------|
[Riff 18] - [02:54] - [03:03]- -----------------------------------------------------------------|- -----------------------------------------------------------------|- -----------------------------------------------------------------|- -5~----8~----1~------------------5~----8~----1~------------------|- -5~----8~----1~------1---1---1---5~----8~----1~------------------|- -5~----8~----1~------1---1---1---5~----8~----1~------------------|PM .........
- -----------------------------------------------------------------|- -----------------------------------------------------------------|- -----------------------------------------------------------------|- -5~----8~----1~------------------5~----8~----1~------------------|- -5~----8~----1~----1-1---1-1-1-1-5~----8~----1~------------------|- -5~----8~----1~----1-1---1-1-1-1-5~----8~----1~------------------|PM .........
----------------------------------------------------------------------------
[Riff 19, Guitar 1 & 2] - [03:03] - [03:22----------| - [3x]- --------------------------------------------------|- --------------------------------------------------|- -7~-----------------------------------------------|- -5~-----------------------------------------------|- -5~-----------------------------------------------|- -5~-----------------------------------------------|
-- -------------------------------------------------|- -------------------------------------------------|- -------------------------------------------------|- -------------------------------------------------|- -5---5-5-5-5---5---5-5-5-5---5---5-5-5-5---5-5-5-|- -5---5-5-5-5---5---5-5-5-5---5---5-5-5-5---5-5-5-|PM ...............................................
- -------------------------------------------------|- -------------------------------------------------|- -3~----------------------------------------------|- -1~----------------------------------------------|- -1~----------------------------------------------|- -1~----------------------------------------------|
-- -------------------------------------------------|- -------------------------------------------------|- -------------------------------------------------|- -------------------------------------------------|- -1---1-1-1-1---1---1-1-1-1---1---1-1-1-1---1-1-1-|- -1---1-1-1-1---1---1-1-1-1---1---1-1-1-1---1-1-1-|PM ...............................................
[Riff 20] - [03:16] - [03:31]- -----------------------------------------------------|- -----------------------------------------------------|- -10--12------------------10--12--10--12--10------10/-|- -----------------------------------------------------|- -----------------------------------------------------|- -----------------------------------------------------|
- -------------------------------------------------|- -------------------------------------------------|- -/12---------------------12------12/-14------14--|- ---------------------15------15------------------|- -------------------------------------------------|- -------------------------------------------------|
- ---------------------------------------------13~-----------------|- -----------------15~---------15~---------------------------------|- -15------------------15~-------------15~-------------------------|- -----------------------------------------------------------------|- -----------------------------------------------------------------|- -----------------------------------------------------------------|
- -22----------22----------22--------------------------------------|- -----18--------------18------18--20/-23------23~-----------------|- -----------------------------------------------------------------|- -----------------------------------------------------------------|- -----------------------------------------------------------------|- -----------------------------------------------------------------|
[Riff 21] - [03:22] - [03:31]- -----------------------------------------------------------------|- -----------------------------------------------------------------|- -7-------------------------------------------------------7\------|- -5-------------------------------------------------------5\------|- -5---5---5---5---5---5---5---5---5---5---5---5---5---5---5\------|- -5---5---5---5---5---5---5---5---5---5---5---5---5---5---5\------|PM .................................................
- -----------------------------------------------------------------|- -----------------------------------------------------------------|- -3-----------------------------------------------3---3---3---3---|- -1-----------------------------------------------1---1---1---1---|- -1---1---1---1---1---1---1---1---1---1---1---1---1---1---1---1---|- -1---1---1---1---1---1---1---1---1---1---1---1---1---1---1---1---|PM .........................................
----------------------------------------------------------------------------
[Riff 22] - [03:31] - [04:04--------------------------------------| - [4x]- ----------------------------------------------------------------|- ----------------------------------------------------------------|- ----------------------------------------------------------------|- ----------------------------------------------------------------|- -5---5-5-5-5---5---5-5-5-5---5---5-5-5-5---5-5-5---5---5-5-5----|- -5---5-5-5-5---5---5-5-5-5---5---5-5-5-5---5-5-5---5---5-5-5----|PM ...........................................................
- ---------------------------------------------------------------|- ---------------------------------------------------------------|- ---------------------------------------------------------------|- ---------------------------------------------------------------|- -1---1-1-1-1---1---1-1-1-1---1---1-1-1-1---1-1-1---1---1-1-1---|- -1---1-1-1-1---1---1-1-1-1---1---1-1-1-1---1-1-1---1---1-1-1---|PM ...........................................................
[Riff 23] - [03:31] - [04:04----------------| - [4x]- ------------------------------------------|- ------------------------------------------|- -10-10------------------------------------|- -------8-8-7-7-------8-8-12-12-8-8-12-12--|- ---------------10-10----------------------|- ------------------------------------------|PM .......................................
- -------------------------10-10-------10-10-11-11-|- -------------------11-11-------11-11-------------|- -12-12-10-10-12-12-------------------------------|- -------------------------------------------------|- -------------------------------------------------|- -------------------------------------------------|
- -10p6h8--------10p6----------11p6-10p6-|- --------6h8h10------10p6h8p6-----------|- ---------------------------------------|- ---------------------------------------|- ---------------------------------------|- ---------------------------------------|
- -10p6h8--------10p6----------11p6-10p6-|- --------6h8h10------10p6h8p6-----------|- ---------------------------------------|- ---------------------------------------|- ---------------------------------------|- ---------------------------------------|
[Riff 24] - [03:47] - [04:04----------------------| - [2x]- ------------------------------------------------|- ------------------------------------------------|- ------------------------------------------------|- -12-12------------------------------------------|- -------10-10-8-8-------10-10-13-13-10-10-13-13--|- -----------------13-13--------------------------|PM .............................................
- -------------------------------------------------|- -------------------------11-11-------11-11-13-13-|- -------------------12-12-------12-12-------------|- -13-13-12-12-13-13-------------------------------|- -------------------------------------------------|- -------------------------------------------------|
- -13p10h11----------13p11-------------15p10-13p13-|- ----------10h11h13-------13p10h11p10-------------|- -------------------------------------------------|- -------------------------------------------------|- -------------------------------------------------|- -------------------------------------------------|
- -13p10h11----------13p11-------------15p10-13p13-|- ----------10h11h13-------13p10h11p10-------------|- -------------------------------------------------|- -------------------------------------------------|- -------------------------------------------------|- -------------------------------------------------|
----------------------------------------------------------------------------
[Riff 25a] - [04:04] - [04:08-------------| - [2x]- -10p6h8--------10p6----------11p6-10p6--|- --------6h8h10------10p6h8p6------------|- ----------------------------------------|- ----------------------------------------|- ----------------------------------------|- ----------------------------------------|
[Riff 25b] - [04:04] - [04:08-----------------------| - [2x]- -13p10h11----------13p11-------------15p10-13p13--|- ----------10h11h13-------13p10h11p10--------------|- --------------------------------------------------|- --------------------------------------------------|- --------------------------------------------------|- --------------------------------------------------|
----------------------------------------------------------------------------
[Riff 26, Guitar 1 & 2] - [04:08] - [04:20]- -----------------------------------------------------------------|- -----------------------------------------------------------------|- -----------------------------------------------------------------|- -5~--------------------------------------------------------------|- -5~--------------------------------------------------------------|- -5~--------------------------------------------------------------|
-- -15~-------------------------------------------------------------|- -----------------------------------------------------------------|- -----------------------------------------------------------------|- -----------------------------------------------------------------|- -----------------------------------------------------------------|- -----------------------------------------------------------------|
---------------------------------------------------------------------------- [Symbols] ~ Let Ring \ Slide Down / Slide Up AP... Alternate Pick notes with ... under them PM... Palm Mute notes with ... under them h Hammer On p Pull Off \\\\ Pick Slide b Bend r Release :)
Tap to rate this tab
 
# A B C D E F G H I J K L M N O P Q R S T U V W X Y Z