August Burns Red - Endorphins tab version 2

Lead
Drop C# (C#G#C#F#A#D#)

Legend
L - tied note
x - dead note
h - hammer on/pull off
b - bend
s - slide
~ - vibrato
g - ghost note
> - accentuated note
t - trill
M - palm mute
. - staccato
P - popping (bass)
S - slapping (bass)
+ - tapping
W - wide vibrato
< - fade in
w - whammy bar
= - tremolo picking
v - brush up
^ - brush down
V - pick stroke up
n - pick stroke down

                                                                         
D#|----------------|----------------------------------------------------|A#|----------------|----------------------------------------------------|F#|----------------|--------------10----------10s---11------------------|C#|----------------|----------------------------------------------------|G#|----------------|--------------8-----------8s----9-----------9L------|C#|----------------|--0--0--0--0--------0-----------------0-----9L------|
----------------------------|----------------------------|----------------------------|----------------------------|--9--9--9--3-----3--3--3----|--9--9--9--3-----3--3--3----|
----------------------------------------------------|----------------------------------------------------|--------------10----------10s---11------------------|----------------------------------------------------|--------------8-----------8s----9-----------9L------|--0--0--0--0--------0-----------------0-----9L------|
----------------------------|----------------------------|----------------------------|----------------------------|--9--9--9--3s----6--6--6----|--9--9--9--3s----6--6--6----|
----------------------------------------------------|----------------------------------------------------|--------------10----------10s---11------------------|----------------------------------------------------|--------------8-----------8s----9-----------9L------|--0--0--0--0--------0-----------------0-----9L------|
----------------------------|----------------------------|----------------------------|----------------------------|----------------------------|----------------------------|----------------------------|----------------------------|--9--9--9--3-----3--3--3----|--6-----6--6-----6--6--6----|--9--9--9--3-----3--3--3----|--6-----6--6-----6--6--6----|
----------------------------|----------------------------|----------------------------|----------------------------|--5-----5--5--2-----2--2----|--5-----5--5--2-----2--2----|
----------------------------------------------------|----------------------------------------------------|--------------10----------10s---11------------------|----------------------------------------------------|--------------8-----------8s----9-----------9L------|--0--0--0--0--------0-----------------0-----9L------|
----------------------------|----------------------------|----------------------------|----------------------------|--9--9--9--3-----3--3--3----|--9--9--9--3-----3--3--3----|
----------------------------------------------------|----------------------------------------------------|--------------10----------10s---11------------------|----------------------------------------------------|--------------8-----------8s----9-----------9L------|--0--0--0--0--------0-----------------0-----9L------|
----------------------------|----------------------------|----------------------------|----------------------------|--9--9--9--3s----6--6--6----|--9--9--9--3s----6--6--6----|
----------------------------------------------------|----------------------------------------------------|--------------10----------10s---11------------------|----------------------------------------------------|--------------8-----------8s----9-----------9L------|--0--0--0--0--------0-----------------0-----9L------|
----------------------------|----------------------------|----------------------------|----------------------------|----------------------------|----------------------------|----------------------------|----------------------------|--9--9--9--3-----3--3--3----|--6-----6--6-----6--6--6----|--9--9--9--3-----3--3--3----|--6-----6--6-----6--6--6----|
----------------------------|----------------------------|----------------------------|----------------------------|--5-----5--5--2-----2--2----|--5-----5--5--2-----2--2----|
----------------------------------------------------|----------------------------------------------------|--------------10----------10s---11------------------|----------------------------------------------------|--------------8-----------8s----9-------------------|--0--0--0--0--------0-----------------0--0--0--0----|
----------------------------------------------|----------------------------------------------|--10----------10s---11----------10s---11------|----------------------------------------------|--8-----------8s----9-----------8s----9-------|--------0-----------------0--0----------------|
----------------------------------------------------|----------------------------------------------------|--------------10----------10s---11------------------|----------------------------------------------------|--------------8-----------8s----9-------------------|--0--0--0--0--------0-----------------0--0--0--0----|
----------------------------------------------|----------------------------------------------|--10----------10s---11----------10s---11------|----------------------------------------------|--8-----------8s----9-----------8s----9-------|--------0-----------------0--0----------------|
----------------------------------------------------|----------------------------------------------------|--------------10----------10s---11------------------|----------------------------------------------------|--------------8-----------8s----9-------------------|--0--0--0--0--------0-----------------0--0--0--0----|
----------------------------------------------|----------------------------------------------|--10----------10s---11----------10s---11------|----------------------------------------------|--8-----------8s----9-----------8s----9-------|--------0-----------------0--0----------------|
----------------------------------------------------|----------------------------------------------------|--------------10----------10s---11------------------|----------------------------------------------------|--------------8-----------8s----9-----------9L------|--0--0--0--0--------0-----------------0-----9L------|
----------------------------|----------------------------|----------------------------|----------------------------|--9--9--9--3-----3--3--3----|--9--9--9--3-----3--3--3----|
----------------------------------------------------|----------------------------------------------------|--------------10----------10s---11------------------|----------------------------------------------------|--------------8-----------8s----9-----------9L------|--0--0--0--0--------0-----------------0-----9L------|
----------------------------|----------------------------|----------------------------|----------------------------|--9--9--9--3s----6--6--6----|--9--9--9--3s----6--6--6----|
----------------------------------------------------|----------------------------------------------------|--------------10----------10s---11------------------|----------------------------------------------------|--------------8-----------8s----9-----------9L------|--0--0--0--0--------0-----------------0-----9L------|
----------------------------|----------------------------|----------------------------|----------------------------|----------------------------|----------------------------|----------------------------|----------------------------|--9--9--9--3-----3--3--3----|--6-----6--6-----6--6--6----|--9--9--9--3-----3--3--3----|--6-----6--6-----6--6--6----|
----------------------------|----------------------------|----------------------------|----------------------------|----------------------------|----------------------------|----------------------------|----------------------------|--5-----5--5--2-----2--2----|--0--0--0--0--0--0--0--0----|--5-----5--5--2-----2--2----|--0--0--0--0--0--0--0--0----|
----------------------------|----------------------------|--------------------9--9----|--------------------9--9----|----------------------------|----------------------------|-----------------6--6--6----|-----------------6--6--6----|--0--0--0--0--0--0--0--0----|--0--0--0--0--0--0--0--0----|--0--0--0--0--0--0-----0----|--0--0--0--0--0--0-----0----|
----------------------------|----------------------------|--------------------9--9----|----------------------------|----------------------------|----------------------------|-----------------6--6--6----|----------------------------|--0--0--0--0--0--0--0--0----|--0--0--0--0--0--0--0--0----|--0--0--0--0--0--0-----0----|--0--0--0--0--0--0--0--0----|
----------------------------|----------------------------|--------------------9--9----|--------------------9--9----|----------------------------|----------------------------|-----------------6--6--6----|-----------------6--6--6----|--0--0--0--0--0--0--0--0----|--0--0--0--0--0--0--0--0----|--0--0--0--0--0--0-----0----|--0--0--0--0--0--0-----0----|
= = = = = = = = ----------------------------|----------------------------|--------------------9--9----|--11-8--10-7--9--6--8--5----|----------------------------|----------------------------|-----------------6--6--6----|----------------------------|--0--0--0--0--0--0--0--0----|----------------------------|--0--0--0--0--0--0-----0----|----------------------------|
= = = = = = = = = = = = = = = = ----------------------------|----------------------------|--11-8--10-7--9--6--8--5----|--11-8--10-7--9--6--8--5----|----------------------------|----------------------------|----------------------------|----------------------------|----------------------------|----------------------------|----------------------------|----------------------------|
= = = = = = = = = = = = = = = = ----------------------------|----------------------------|--11-8--10-7--9--6--8--5----|--11-8--10-7--9--6--8--5----|----------------------------|----------------------------|----------------------------|----------------------------|----------------------------|----------------------------|----------------------------|----------------------------|
= = = = = = = = = = = = = = = = ----------------------------|----------------------------|--11-8--10-7--9--6--8--5----|--11-8--10-7--9--6--8--5----|----------------------------|----------------------------|----------------------------|----------------------------|----------------------------|----------------------------|----------------------------|----------------------------|
= = = = = = = =----------------------------|----------------------------|--11-8--10-7--9--6--8--5----|--------7h-8--------7h-8----|----------------------------|--7h-8--------7h-8----------|----------------------------|----------------------------|----------------------------|----------------------------|----------------------------|----------------------------|
----------------------------|----------------------------|--------7h-8--------7h-8----|--------7h-8--------7h-8----|--7h-8--------7h-8----------|--7h-8--------7h-8----------|----------------------------|----------------------------|----------------------------|----------------------------|----------------------------|----------------------------|
----------------------------|----------------------------|--------7h-8--------7h-8----|--------7h-8--------7h-8----|--7h-8--------7h-8----------|--7h-8--------7h-8----------|----------------------------|----------------------------|----------------------------|----------------------------|----------------------------|----------------------------|
----------------------------|----------------------------|--------7h-8--------7h-8----|--------7h-8--------7h-8----|--7h-8--------7h-8----------|--7h-8--------7h-8----------|----------------------------|----------------------------|----------------------------|----------------------------|----------------------------|----------------------------|
----------------------------|----------------------------|--------7h-8--------7h-8----|--------7h-8--------7h-8----|--7h-8--------7h-8----------|--7h-8--------7h-8----------|----------------------------|----------------------------|----------------------------|----------------------------|----------------------------|----------------------------|
----------------------------|----------------------------|--------7h-8--------7h-8----|--------7h-8--------7h-8----|--7h-8--------7h-8----------|--7h-8--------7h-8----------|----------------------------|----------------------------|----------------------------|----------------------------|----------------------------|----------------------------|
----------------------------|----------------------------|----------------------------|--------------7h-8----------|--7h-8--5h-7--3h-5--2h-3----|--------7h-8----------------|----------------------------|----------------------------|----------------------------|--0-----------------0-------|----------------------------|--0-----------------0-------|
----------------------------|----------------------------|--------------7h-8----------|--7h-8----------------------|--------7h-8--------7h-8----|--------------7h-8----------|----------------------------|----------------------------|--0-------------------------|--------0-----------0-------|--0-------------------------|--------0-----------0-------|
----------------------------|----------------------------|--------------8h-7----------|--------------7h-8----------|--------------------8h-7----|--------7h-8----------------|----------------------------|----------------------------|--0-----0-------------------|--0-----------------0-------|--0-----0-------------------|--0-----------------0-------|
----------------------------|----------------------------|--------------7h-8----------|--7h-8----------------------|--------7h-8--------7h-8----|--------------7h-8----------|----------------------------|----------------------------|--0-------------------------|--------0-----------0-------|--0-------------------------|--------0-----------0-------|
----------------------------|----------------------------|--------------8h-7----------|--------------7h-8----------|--------------------8h-7----|--------7h-8----------------|----------------------------|----------------------------|--0-----0-------------------|--0-----------------0-------|--0-----0-------------------|--0-----------------0-------|
----------------------------|----------------------------|--------------7h-8----------|--7h-8----------------------|--------7h-8--------7h-8----|--------------7h-8----------|----------------------------|----------------------------|--0-------------------------|--------0-----------0-------|--0-------------------------|--------0-----------0-------|
----------------------------|----------------------------|--------------8h-7----------|--------------7h-8----------|--------------------8h-7----|--------7h-8----------------|----------------------------|----------------------------|--0-----0-------------------|--0-----------------0-------|--0-----0-------------------|--0-----------------0-------|
----------------------------|----------------------------|--------------7h-8----------|--7h-8----------------------|--------7h-8--------7h-8----|--------------7h-8----------|----------------------------|----------------------------|--0-------------------------|--------0-----------0-------|--0-------------------------|--------0-----------0-------|
----------------------------|----------------------------|--------------8h-7----------|--------7h-8--------7h-8----|--------------------8h-7----|--7h-8--------7h-8----------|----------------------------|----------------------------|--0-----0-------------------|----------------------------|--0-----0-------------------|----------------------------|
----------------------------|----------------|----------------------------|--------7h-8--------7h-8----|--------7h-8----|----------------------------|--7h-8--------7h-8----------|--7h-8----------|----------------------------|----------------------------|----------------|----------------------------|----------------------------|----------------|--0--------0M-1M-0M-3M-4M---|----------------------------|----------------|--0--------0--1--0--3--4----|
----------------------|----------------------------------------------------|--------------0-------|--------------------------------------------0L------|-----------3-----3----|--------------------------------------3L----3L------|----------------------|----------------------------------------------------|--0-------------------|--0M-------1M-------0M----4M----3-------------------|--0-------------------|--0--------1--------0-----4-----3-------------------|
----------------------------------------------------|----------------------|--0-----------------------------------------0L------|--0-------------------|--3-----------------------------------3-------------|--3L-3----------------|----------------------------------------------------|----------------------|--0M-------1M-------0M----4M----3M------------------|-----0M-3M-1M-0M-1M---|--0--------1--------0-----4-----3-------------------|-----0--3--1--0--1----|
----------------------------------------------------|--------------------------------------------0L------|--------------------------------------3L----3L------|----------------------------------------------------|--0M-------1M-------0M----4M----3-------------------|--0--------1--------0-----4-----3-------------------|
----------------------------------------------------|----------------------|--0-----------------------------------------0L------|--0-------------------|--3-----------------------------------3-------------|--3L-3----------------|----------------------------------------------------|----------------------|--0M-------1M-------0M----4M----3M------------------|-----0M-3M-1M-0M-1M---|--0--------1--------0-----4-----3-------------------|-----0--3--1--0--1----|
----------------------------------------------------|--------------------------------------------0L------|--------------------------------------3L----3L------|----------------------------------------------------|--0M-------1M-------0M----4M----3-------------------|--0--------1--------0-----4-----3-------------------|
----------------------------------------------------|----------------------|--0-----------------------------------------0L------|--0-------------------|--3-----------------------------------3-------------|--3L-3----------------|----------------------------------------------------|----------------------|--0M-------1M-------0M----4M----3M------------------|-----0M-3M-1M-0M-1M---|--0--------1--------0-----4-----3-------------------|-----0--3--1--0--1----|
----------------------------------------------------|--------------------------------------------0L------|--------------------------------------3L----3L------|----------------------------------------------------|--0M-------1M-------0M----4M----3-------------------|--0--------1--------0-----4-----3-------------------|
----------------------------------------------------|----------------------|--0-----------------------------------------0L------|--0-------------------|--3-----------------------------------3-------------|--3L-3----------------|----------------------------------------------------|----------------------|--0M-------1M-------0M----4M----3M------------------|-----0M-3M-1M-0M-1M---|--0--------1--------0-----4-----3-------------------|-----0--3--1--0--1----|
----------------------------------------------------|--------------------------------------------0L------|--------------------------------------3L----3L------|----------------------------------------------------|--0M-------1M-------0M----4M----3-------------------|--0--------1--------0-----4-----3-------------------|
----------------------------------------------------|----------------------|--0-----------------------------------------0L------|--0-------------------|--3-----------------------------------3-------------|--3L-3----------------|----------------------------------------------------|----------------------|--0M-------1M-------0M----4M----3M------------------|-----0M-3M-1M-0M-1M---|--0--------1--------0-----4-----3-------------------|-----0--3--1--0--1----|
-------------------|-------------------|-------------------|-------------------|-------------------|-------------------|-------------------|-------------------|-------------------|-------------------|-------------------|-------------------|-------------------|-------------------|-------------------|-------------------|--0M-1M-0M-4M-3M---|--0M-3M-1M-0M-1----|--0M-1M-0M-4M-3M---|--0M-3M-1M-0M-1----|--0--1--0--4--3----|--0--3--1--0--1----|--0--1--0--4--3----|--0--3--1--0--1----|
-------------------|-------------------|-------------------|-------------------|-------------------|-------------------|-------------------|-------------------|-------------------|-------------------|-------------------|-------------------|-------------------|-------------------|-------------------|-------------------|--0M-1M-0M-4M-3M---|--0M-3M-1M-0M-1----|--0M-1M-0M-4M-3M---|--0M-3M-1M-0M-1----|--0--1--0--4--3----|--0--3--1--0--1----|--0--1--0--4--3----|--0--3--1--0--1----|
-------------------|-------------------|-------------------|-------------------|-------------------|-------------------|-------------------|-------------------|-------------------|-------------------|-------------------|-------------------|-------------------|-------------------|-------------------|-------------------|--0M-1M-0M-4M-3M---|--0M-3M-1M-0M-1----|--0M-1M-0M-4M-3M---|--0M-3M-1M-0M-1----|--0--1--0--4--3----|--0--3--1--0--1----|--0--1--0--4--3----|--0--3--1--0--1----|
-------------------|-------------------|-------------------|-------------------|-------------------|-------------------|-------------------|-------------------|-------------------|-------------------|-------------------|-------------------|-------------------|-------------------|-------------------|-------------------|--0M-1M-0M-4M-3M---|--0M-3M-1M-0M-1----|--0M-1M-0M-4M-3M---|--0M-3M-1M-0M-1----|--0--1--0--4--3----|--0--3--1--0--1----|--0--1--0--4--3----|--0--3--1--0--1----|
-------------------|-------------------|-------------------|-------------------|-------------------|-------------------|-------------------|-------------------|-------------------|-------------------|-------------------|-------------------|-------------------|-------------------|-------------------|-------------------|--0M-1M-0M-4M-3M---|--0M-3M-1M-0M-1----|--0M-1M-0M-4M-3M---|--0M-3M-1M-0M-1----|--0--1--0--4--3----|--0--3--1--0--1----|--0--1--0--4--3----|--0--3--1--0--1----|
-------------------|-------------------|-------------------|-------------------|-------------------|-------------------|-------------------|-------------------|-------------------|-------------------|-------------------|-------------------|-------------------|-------------------|-------------------|-------------------|--0M-1M-0M-4M-3M---|--0M-3M-1M-0M-1----|--0M-1M-0M-4M-3M---|--0M-3M-1M-0M-1----|--0--1--0--4--3----|--0--3--1--0--1----|--0--1--0--4--3----|--0--3--1--0--1----|
----------------------------------------|--10-10-10-10-10-10-8--8--8--8--8--8----|----------------------------------------|----------------------------------------|----------------------------------------|----------------------------------------|
----------------------------------------|--11-11-11-11-11-11---------------------|--------------------9--9--10-10-12-12---|----------------------------------------|----------------------------------------|----------------------------------------|
----------------------------------------|--10-10-10-10-10-10-8--8--8--8--8--8----|----------------------------------------|----------------------------------------|----------------------------------------|----------------------------------------|
--------------------12-12-12-12-12-12---|--11-11-11-11-11-11---------------------|----------------------------------------|----------------------------------------|----------------------------------------|----------------------------------------|
--13-13-13-13-13-13-12-12-12-12-12-12---|----------------------------------------|----------------------------------------|----------------------------------------|----------------------------------------|----------------------------------------|
--15-15-15-15-15-15-13-13-13-13-13-13---|----------------------------------------|----------------------------------------|----------------------------------------|----------------------------------------|----------------------------------------|
--10-9-----9-----9--10-9-----9-----9----|--------10----10----------10----10------|----------------------------------------|----------------------------------------|----------------------------------------|----------------------------------------|
--15-12----15----12-15------------------|--------10----10------------------------|----------------------------------------|----------------------------------------|----------------------------------------|----------------------------------------|
----------------------------------------------------------------------------|--------6--5--------------6--5--------------------------6--5----------------|----------------------------------------------------------------------------|--------------7-----------------7-----------------------------7-------------|--0-----------------0M----------------0M----6M----0M----------------0-------|--0-----------------0-----------------0-----6-----0-----------------0-------|
----------------------------------------------------------------|--------------------------------6--5----------------------------|--3h-4--4h-6--6h-8--8h-9----------------------------------------|--------------------------------------7-------------------------|--------------------------0M----------------0M----6M----0M------|--------------------------0-----------------0-----6-----0-------|
----------------------------------------------------------------------------|--------6--5--------------6--5--------------------------6--5----------------|----------------------------------------------------------------------------|--------------7-----------------7-----------------------------7-------------|--0-----------------0M----------------0M----6M----0M----------------0-------|--0-----------------0-----------------0-----6-----0-----------------0-------|
----------------------------------------------------------------|--------------------------------6--5----------------------------|--3h-4--4h-6--6h-8--8h-9----------------------------------------|--------------------------------------7-------------------------|--------------------------0M----------------0M----6M----0M------|--------------------------0-----------------0-----6-----0-------|
----------------------------------------------------------------------------|--------6--5--------------6--5--------------------------6--5----------------|----------------------------------------------------------------------------|--------------7-----------------7-----------------------------7-------------|--0-----------------0M----------------0M----6M----0M----------------0-------|--0-----------------0-----------------0-----6-----0-----------------0-------|
----------------------------------------------------------------|--------------------------------6--5----------------------------|--3h-4--4h-6--6h-8--8h-9----------------------------------------|--------------------------------------7-------------------------|--------------------------0M----------------0M----6M----0M------|--------------------------0-----------------0-----6-----0-------|
----------------------------------------------------------------------------|--------6--5--------------6--5--------------------------6--5----------------|----------------------------------------------------------------------------|--------------7-----------------7-----------------------------7-------------|--0-----------------0M----------------0M----6M----0M----------------0-------|--0-----------------0-----------------0-----6-----0-----------------0-------|
----------------------------------------------------------------|--------------------------------6--5----------------------------|--3h-4--4h-6--6h-8--8h-9----------------------------------------|--------------------------------------7-------------------------|--------------------------0M----------------0M----6M----0M------|--------------------------0-----------------0-----6-----0-------|
----------------------------------------------------------------------------|--------6--5--------------6--5--------------------------6--5----------------|----------------------------------------------------------------------------|--------------7-----------------7-----------------------------7-------------|--0-----------------0M----------------0M----6M----0M----------------0-------|--0-----------------0-----------------0-----6-----0-----------------0-------|
----------------------------------------------------------------|--------------------------------6--5----------------------------|--3h-4--4h-6--6h-8--8h-9----------------------------------------|--------------------------------------7-------------------------|--------------------------0M----------------0M----6M----0M------|--------------------------0-----------------0-----6-----0-------|
----------------------------------------------------------------------------|--------6--5--------------6--5--------------------------6--5----------------|----------------------------------------------------------------------------|--------------7-----------------7-----------------------------7-------------|--0-----------------0M----------------0M----6M----0M----------------0-------|--0-----------------0-----------------0-----6-----0-----------------0-------|
----------------------------------------------------------------|--------------------------------6--5----------------------------|--3h-4--4h-6--6h-8--8h-9----------------------------------------|--------------------------------------7-------------------------|--------------------------0M------------------------------------|--------------------------0-------------------------------------|
----------------------------------------|----------------------------------|----------------------------------------|----------------------------------|----------------------------------------|----------------------------------|----------------------------------------|----------------------------------|--0--6--0-------------------------------|----------------------------------|--0--6--0-------------------------------|----------------------------------|
----------------------------------||----------------------------------||----------------------------------||----------------------------------||----------------------------------||----------------------------------||_______________________________________________________________________________________________________________________
Rhythm Drop C# (C#G#C#F#A#D#) Legend L - tied note x - dead note h - hammer on/pull off b - bend s - slide ~ - vibrato g - ghost note > - accentuated note t - trill M - palm mute . - staccato P - popping (bass) S - slapping (bass) + - tapping W - wide vibrato < - fade in w - whammy bar = - tremolo picking v - brush up ^ - brush down V - pick stroke up n - pick stroke down
D#|----------------|----------------------------------------------------|A#|----------------|----------------------------------------------------|F#|----------------|--------------10----------10s---11------------------|C#|----------------|----------------------------------------------------|G#|----------------|--------------8-----------8s----9-----------9L------|C#|----------------|--0--0--0--0--------0-----------------0-----9L------|
----------------------------|----------------------------|----------------------------|----------------------------|--9--9--9--3-----3--3--3----|--9--9--9--3-----3--3--3----|
----------------------------------------------------|----------------------------------------------------|--------------10----------10s---11------------------|----------------------------------------------------|--------------8-----------8s----9-----------9L------|--0--0--0--0--------0-----------------0-----9L------|
----------------------------|----------------------------|----------------------------|----------------------------|--9--9--9--3s----6--6--6----|--9--9--9--3s----6--6--6----|
----------------------------------------------------|----------------------------------------------------|--------------10----------10s---11------------------|----------------------------------------------------|--------------8-----------8s----9-----------9L------|--0--0--0--0--------0-----------------0-----9L------|
----------------------------|----------------------------|----------------------------|----------------------------|----------------------------|----------------------------|----------------------------|----------------------------|--9--9--9--3-----3--3--3----|--6-----6--6-----6--6--6----|--9--9--9--3-----3--3--3----|--6-----6--6-----6--6--6----|
----------------------------|----------------------------|----------------------------|----------------------------|--5-----5--5--2-----2--2----|--5-----5--5--2-----2--2----|
----------------------------------------------------|----------------------------------------------------|--------------10----------10s---11------------------|----------------------------------------------------|--------------8-----------8s----9-----------9L------|--0--0--0--0--------0-----------------0-----9L------|
----------------------------|----------------------------|----------------------------|----------------------------|--9--9--9--3-----3--3--3----|--9--9--9--3-----3--3--3----|
----------------------------------------------------|----------------------------------------------------|--------------10----------10s---11------------------|----------------------------------------------------|--------------8-----------8s----9-----------9L------|--0--0--0--0--------0-----------------0-----9L------|
----------------------------|----------------------------|----------------------------|----------------------------|--9--9--9--3s----6--6--6----|--9--9--9--3s----6--6--6----|
----------------------------------------------------|----------------------------------------------------|--------------10----------10s---11------------------|----------------------------------------------------|--------------8-----------8s----9-----------9L------|--0--0--0--0--------0-----------------0-----9L------|
----------------------------|----------------------------|----------------------------|----------------------------|----------------------------|----------------------------|----------------------------|----------------------------|--9--9--9--3-----3--3--3----|--6-----6--6-----6--6--6----|--9--9--9--3-----3--3--3----|--6-----6--6-----6--6--6----|
----------------------------|----------------------------|----------------------------|----------------------------|--5-----5--5--2-----2--2----|--5-----5--5--2-----2--2----|
----------------------------------------------------|----------------------------------------------------|--------------10----------10s---11------------------|----------------------------------------------------|--------------8-----------8s----9-------------------|--0--0--0--0--------0-----------------0--0--0--0----|
----------------------------------------------|----------------------------------------------|--10----------10s---11----------10s---11------|----------------------------------------------|--8-----------8s----9-----------8s----9-------|--------0-----------------0--0----------------|
----------------------------------------------------|----------------------------------------------------|--------------10----------10s---11------------------|----------------------------------------------------|--------------8-----------8s----9-------------------|--0--0--0--0--------0-----------------0--0--0--0----|
----------------------------------------------|----------------------------------------------|--10----------10s---11----------10s---11------|----------------------------------------------|--8-----------8s----9-----------8s----9-------|--------0-----------------0--0----------------|
----------------------------------------------------|----------------------------------------------------|--------------13----------13s---14------------------|----------------------------------------------------|--------------11----------11s---12------------------|--0--0--0--0--------0-----------------0--0--0--0----|
----------------------------------------------|----------------------------------------------|--13----------13s---14----------13s---14------|----------------------------------------------|--11----------11s---12----------11s---12------|--------0-----------------0--0----------------|
----------------------------------------------------|----------------------------------------------------|--------------13----------13s---14------------------|----------------------------------------------------|--------------11----------11s---12----------9L------|--0--0--0--0--------0-----------------0-----9L------|
----------------------------|----------------------------|----------------------------|----------------------------|--9--9--9--3-----3--3--3----|--9--9--9--3-----3--3--3----|
----------------------------------------------------|----------------------------------------------------|--------------10----------10s---11------------------|----------------------------------------------------|--------------8-----------8s----9-----------9L------|--0--0--0--0--------0-----------------0-----9L------|
----------------------------|----------------------------|----------------------------|----------------------------|--9--9--9--3s----6--6--6----|--9--9--9--3s----6--6--6----|
----------------------------------------------------|----------------------------------------------------|--------------10----------10s---11------------------|----------------------------------------------------|--------------8-----------8s----9-----------9L------|--0--0--0--0--------0-----------------0-----9L------|
----------------------------|----------------------------|----------------------------|----------------------------|----------------------------|----------------------------|----------------------------|----------------------------|--9--9--9--3-----3--3--3----|--6-----6--6-----6--6--6----|--9--9--9--3-----3--3--3----|--6-----6--6-----6--6--6----|
----------------------------|----------------------------|----------------------------|----------------------------|----------------------------|----------------------------|----------------------------|----------------------------|--5-----5--5--2-----2--2----|--0--0--0--0--0--0--0--0----|--5-----5--5--2-----2--2----|--0--0--0--0--0--0--0--0----|
----------------------------|----------------------------|--------------------9--9----|--------------------9--9----|----------------------------|----------------------------|-----------------6--6--6----|-----------------6--6--6----|--0--0--0--0--0--0--0--0----|--0--0--0--0--0--0--0--0----|--0--0--0--0--0--0-----0----|--0--0--0--0--0--0-----0----|
----------------------------|----------------------------|--------------------9--9----|----------------------------|----------------------------|----------------------------|-----------------6--6--6----|----------------------------|--0--0--0--0--0--0--0--0----|--0--0--0--0--0--0--0--0----|--0--0--0--0--0--0-----0----|--0--0--0--0--0--0--0--0----|
----------------------------|----------------------------|--------------------9--9----|--------------------9--9----|----------------------------|----------------------------|-----------------6--6--6----|-----------------6--6--6----|--0--0--0--0--0--0--0--0----|--0--0--0--0--0--0--0--0----|--0--0--0--0--0--0-----0----|--0--0--0--0--0--0-----0----|
----------------------------|----------------------------|--------------------9--9----|----------------------------|----------------------------|----------------------------|-----------------6--6--6----|----------------------------|--0--0--0--0--0--0--0--0----|--0--0--0--0--0--0--0--0----|--0--0--0--0--0--0-----0----|--0--0--0--0--0--0--0--0----|
----------------------------|----------------------------|--------------------9--9----|--------------------9--9----|----------------------------|----------------------------|-----------------6--6--6----|-----------------6--6--6----|--0--0--0--0--0--0--0--0----|--0--0--0--0--0--0--0--0----|--0--0--0--0--0--0-----0----|--0--0--0--0--0--0-----0----|
----------------------------|----------------------------|--------------------9--9----|----------------------------|----------------------------|----------------------------|-----------------6--6--6----|----------------------------|--0--0--0--0--0--0--0--0----|--0--0--0--0--0--0--0--0----|--0--0--0--0--0--0-----0----|--0--0--0--0--0--0--0--0----|
----------------------------|----------------------------|--------------------9--9----|--------------------9--9----|----------------------------|----------------------------|-----------------6--6--6----|-----------------6--6--6----|--0--0--0--0--0--0--0--0----|--0--0--0--0--0--0--0--0----|--0--0--0--0--0--0-----0----|--0--0--0--0--0--0-----0----|
----------------------------|----------------------------|--------------------9--9----|----------------------------|----------------------------|----------------------------|-----------------6--6--6----|----------------------------|--0--0--0--0--0--0--0--0----|----------------------------|--0--0--0--0--0--0-----0----|----------------------------|
----------------------------|----------------------------|----------------------------|----------------------------|----------------------------|----------------------------|----------------------------|----------------------------|----------------------------|----------------------------|----------------------------|----------------------------|
----------------------------|----------------------------|----------------------------|----------------------------|----------------------------|----------------------------|----------------------------|----------------------------|----------------------------|--5L-5L-5L-5L-5L-5M-5L-5M---|----------------------------|--5L-5L-5L-5L-5L-5--5L-5----|
----------------------------|----------------------------|----------------------------|----------------------------|----------------------------|----------------------------|----------------------------|----------------------------|--5L-5L-5L-5L-5L-5L-5L-5L---|--5L-5M-5L-5L-5L-5M-5L-5M---|--5L-5L-5L-5L-5L-5L-5L-5L---|--5L-5--5L-5L-5L-5--5L-5----|
----------------------------|----------------------------|----------------------------|----------------------------|----------------------------|----------------------------|----------------------------|----------------------------|--5L-5M-5L-5L-5L-5L-5L-5M---|--5L-5L-5L-5L-5L-5M-5L-5M---|--5L-5--5L-5L-5L-5L-5L-5----|--5L-5L-5L-5L-5L-5--5L-5----|
----------------------------|----------------------------|----------------------------|----------------------------|----------------------------|----------------------------|----------------------------|----------------------------|--5L-5L-5L-5L-5L-5L-5L-5L---|--5L-5M-5L-5L-5L-5M-5L-5M---|--5L-5L-5L-5L-5L-5L-5L-5L---|--5L-5--5L-5L-5L-5--5L-5----|
----------------------------|----------------------------|----------------------------|--------------7h-8----------|----------------------------|--------7h-8----------------|----------------------------|----------------------------|--5L-5M-5L-5L-5L-5L-5L-5M---|--0-----------------0-------|--5L-5--5L-5L-5L-5L-5L-5----|--0-----------------0-------|
----------------------------|----------------------------|--------------7h-8----------|--7h-8----------------------|--------7h-8--------7h-8----|--------------7h-8----------|----------------------------|----------------------------|--0-------------------------|--------0-----------0-------|--0-------------------------|--------0-----------0-------|
----------------------------|----------------------------|--------------8h-7----------|--------------7h-8----------|--------------------8h-7----|--------7h-8----------------|----------------------------|----------------------------|--0-----0-------------------|--0-----------------0-------|--0-----0-------------------|--0-----------------0-------|
----------------------------|----------------------------|--------------7h-8----------|--7h-8----------------------|--------7h-8--------7h-8----|--------------7h-8----------|----------------------------|----------------------------|--0-------------------------|--------0-----------0-------|--0-------------------------|--------0-----------0-------|
----------------------------|----------------------------|--------------8h-7----------|--------------11h12---------|--------------------8h-7----|--------11h12---------------|----------------------------|----------------------------|--0-----0-------------------|--0-----------------0-------|--0-----0-------------------|--0-----------------0-------|
----------------------------|----------------------------|--------------11h12---------|--11h12---------------------|--------11h12-------11h12---|--------------11h12---------|----------------------------|----------------------------|--0-------------------------|--------0-----------0-------|--0-------------------------|--------0-----------0-------|
----------------------------|----------------------------|--------------12h11---------|--------------11h12---------|--------------------12h11---|--------11h12---------------|----------------------------|----------------------------|--0-----0-------------------|--0-----------------0-------|--0-----0-------------------|--0-----------------0-------|
----------------------------|----------------------------|--------------11h12---------|--11h12---------------------|--------11h12-------11h12---|--------------11h12---------|----------------------------|----------------------------|--0-------------------------|--------0-----------0-------|--0-------------------------|--------0-----------0-------|
----------------------------|----------------------------|--------------12h11---------|--------11h12-------11h12---|--------------------12h11---|--11h12-------11h12---------|----------------------------|----------------------------|--0-----0-------------------|----------------------------|--0-----0-------------------|----------------------------|
----------------------------|----------------|----------------------------|--------11h12-------11h12---|--------11h12---|----------------------------|--11h12-------11h12---------|--11h12---------|----------------------------|----------------------------|----------------|----------------------------|----------------------------|----------------|--0--------0M-1M-0M-3M-4M---|----------------------------|----------------|--0--------0--1--0--3--4----|
----------------------|----------------------------------------------------|--------------0-------|--------------------------------------------0L------|-----------3-----3----|--------------------------------------3L----3L------|----------------------|----------------------------------------------------|--0-------------------|--0M-------1M-------0M----4M----3-------------------|--0-------------------|--0--------1--------0-----4-----3-------------------|
----------------------------------------------------|----------------------|--0-----------------------------------------0L------|--0-------------------|--3-----------------------------------3-------------|--3L-3----------------|----------------------------------------------------|----------------------|--0M-------1M-------0M----4M----3M------------------|-----0M-3M-1M-0M-1M---|--0--------1--------0-----4-----3-------------------|-----0--3--1--0--1----|
----------------------------------------------------|--------------------------------------------0L------|--------------------------------------3L----3L------|----------------------------------------------------|--0M-------1M-------0M----4M----3-------------------|--0--------1--------0-----4-----3-------------------|
----------------------------------------------------|----------------------|--0-----------------------------------------0L------|--0-------------------|--3-----------------------------------3-------------|--3L-3----------------|----------------------------------------------------|----------------------|--0M-------1M-------0M----4M----3M------------------|-----0M-3M-1M-0M-1M---|--0--------1--------0-----4-----3-------------------|-----0--3--1--0--1----|
----------------------------------------------------|--------------------------------------------0L------|--------------------------------------3L----3L------|----------------------------------------------------|--0M-------1M-------0M----4M----3-------------------|--0--------1--------0-----4-----3-------------------|
----------------------------------------------------|----------------------|--0-----------------------------------------0L------|--0-------------------|--3-----------------------------------3-------------|--3L-3----------------|----------------------------------------------------|----------------------|--0M-------1M-------0M----4M----3M------------------|-----0M-3M-1M-0M-1M---|--0--------1--------0-----4-----3-------------------|-----0--3--1--0--1----|
----------------------------------------------------|--------------------------------------------0L------|--------------------------------------3L----3L------|----------------------------------------------------|--0M-------1M-------0M----4M----3-------------------|--0--------1--------0-----4-----3-------------------|
----------------------------------------------------|----------------------|--0-----------------------------------------0L------|--0-------------------|--3-----------------------------------3-------------|--3L-3----------------|----------------------------------------------------|----------------------|--0M-------1M-------0M----4M----3M------------------|-----0M-3M-1M-0M-1M---|--0--------1--------0-----4-----3-------------------|-----0--3--1--0--1----|
----------------------------------------------------|--------------------------------------------0L------|--------------------------------------3L----3L------|----------------------------------------------------|--0M-------1M-------0M----4M----3-------------------|--0--------1--------0-----4-----3-------------------|
----------------------------------------------------|----------------------|--0-----------------------------------------0L------|--0-------------------|--3-----------------------------------3-------------|--3L-3----------------|----------------------------------------------------|----------------------|--0M-------1M-------0M----4M----3M------------------|-----0M-3M-1M-0M-1M---|--0--------1--------0-----4-----3-------------------|-----0--3--1--0--1----|
-------------------|-------------------|-------------------|-------------------|-------------------|-------------------|-------------------|-------------------|-------------------|-------------------|-------------------|-------------------|-------------------|-------------------|-------------------|-------------------|--0M-1M-0M-4M-3M---|--0M-3M-1M-0M-1----|--0M-1M-0M-4M-3M---|--0M-3M-1M-0M-1----|--0--1--0--4--3----|--0--3--1--0--1----|--0--1--0--4--3----|--0--3--1--0--1----|
-------------------|-------------------|-------------------|-------------------|-------------------|-------------------|-------------------|-------------------|-------------------|-------------------|-------------------|-------------------|-------------------|-------------------|-------------------|-------------------|--0M-1M-0M-4M-3M---|--0M-3M-1M-0M-1----|--0M-1M-0M-4M-3M---|--0M-3M-1M-0M-1----|--0--1--0--4--3----|--0--3--1--0--1----|--0--1--0--4--3----|--0--3--1--0--1----|
----------------------------------|----------------------------------|----------------------------------|----------------------------------|--10-10-10-10-10-10-10-10-10-10---|--10-10-9--9--9--9--9--9--9--9----|----------------------------------|----------------------------------|----------------------------------|----------------------------------|----------------------------------|----------------------------------|
----------------------------------|----------------------------------|----------------------------------|----------------------------------|--10-10-10-10-10-10-10-10-10-10---|--10-10-9--9--9--9--9--9--9--9----|----------------------------------|----------------------------------|----------------------------------|----------------------------------|----------------------------------|----------------------------------|
----------------------------------|----------------------------------|----------------------------------|----------------------------------|--10-10-10-10-10-10-10-10-10-10---|--10-10-9--9--9--9--9--9--9--9----|----------------------------------|----------------------------------|----------------------------------|----------------------------------|----------------------------------|----------------------------------|
----------------------------------|----------------------------------|----------------------------------|----------------------------------|--10-10-10-10-10-10-10-10-10-10---|--10-10-9--9--9--9--9--9--9--9----|----------------------------------|----------------------------------|----------------------------------|----------------------------------|----------------------------------|----------------------------------|
-------------------|-------------------|-------------------|-------------------|-------------------|-------------------|-------------------|-------------------|--10----10----10---|-----9-----9-------|--10----10----10---|-----9-----9-------|-----8M----8M------|--8M----8M----8M---|-----8M----8M------|--8M----8M----8M---|-------------------|-------------------|-------------------|-------------------|-------------------|-------------------|-------------------|-------------------|
-------------------|-------------------|-------------------|-------------------|-------------------|-------------------|-------------------|-------------------|--10----10----10---|-----9-----9-------|--10----10----10---|-----9-----9-------|-----8M----8M------|--8M----8M----8M---|-----8M----8-------|--8M----8M----8M---|-------------------|-------------------|-------------------|-------------------|-------------------|-------------------|-------------------|-------------------|
----------------------|----------------------------------------|----------------------|----------------------------------------|----------------------|----------------------------------------|----------------------|----------------------------------------|--3L----3--2L----2----|--0--0--0--0--0--0----------------------|--3L----3--2L----2----|--0--0--0--0--0--0--2--2--3--3--5--5----|
----------------------|----------------------------------------|----------------------|----------------------------------------|----------------------|----------------------------------------|----------------------|----------------------------------------|--3L----3--2L----2----|--0--0--0--0--0--0----------------------|--3L----3--2L----2----|--0--0--0--0--0--0--2--2--3--3--5--5----|
----------------------|----------------------------------------|----------------------|----------------------------------------|----------------------|----------------------------------------|----------------------|----------------------------------------|--3L----3--2L----2----|--0--0--0--0--0--0----------------------|--3L----3--2L----2----|--0--0--0--0--0--0--2--2--3--3--5--5----|
----------------------------------------------------------------------------|----------------------------------------------------------------------------|--6--6--6--6--6--6--6--6--6--6--6--6--6--6--6--6--6--6--6--6--6--6--6--6----|----------------------------------------------------------------------------|--4--4--4--4--4--4--4--4--4--4--4--4--4--4--4--4--4--4--4--4--4--4--4--4----|----------------------------------------------------------------------------|
----------------------------------------------------------------------------|----------------------------------------------------------------------------|--9--9--9--9--9--9--9--9--9--9--9--9--9-------------------------------------|----------------------------------------------------------------------------|--7--7--7--7--7--7--7--7--7--7--7--7--7-------------------------------------|----------------------------------------------------------------------------|
----------------------------------------------------------------------------|--------6--5--------------6--5--------------------------6--5----------------|----------------------------------------------------------------------------|--------------7-----------------7-----------------------------7-------------|--0-----------------0M----------------0M----6M----0M----------------0-------|--0-----------------0-----------------0-----6-----0-----------------0-------|
----------------------------------------------------------------|--------------------------------6--5----------------------------|--3h-4--4h-6--6h-8--8h-9----------------------------------------|--------------------------------------7-------------------------|--------------------------0M----------------0M----6M----0M------|--------------------------0-----------------0-----6-----0-------|
----------------------------------------------------------------------------|--------6--5--------------6--5--------------------------6--5----------------|----------------------------------------------------------------------------|--------------7-----------------7-----------------------------7-------------|--0-----------------0M----------------0M----6M----0M----------------0-------|--0-----------------0-----------------0-----6-----0-----------------0-------|
----------------------------------------------------------------|--------------------------------6--5----------------------------|--3h-4--4h-6--6h-8--8h-9----------------------------------------|--------------------------------------7-------------------------|--------------------------0M----------------0M----6M----0M------|--------------------------0-----------------0-----6-----0-------|
----------------------------------------------------------------------------|--------9--8--------------9--8--------------------------9--8----------------|----------------------------------------------------------------------------|--------------11----------------11----------------------------11------------|--0-----------------0M----------------0M----6M----0M----------------0-------|--0-----------------0-----------------0-----6-----0-----------------0-------|
----------------------------------------------------------------|--------------------------------9--8----------------------------|--6h-8--8h-9--9h-11-11h12---------------------------------------|--------------------------------------11------------------------|--------------------------0M----------------0M----6M----0M------|--------------------------0-----------------0-----6-----0-------|
----------------------------------------------------------------------------|--------9--8--------------9--8--------------------------9--8----------------|----------------------------------------------------------------------------|--------------11----------------11----------------------------11------------|--0-----------------0M----------------0M----6M----0M----------------0-------|--0-----------------0-----------------0-----6-----0-----------------0-------|
----------------------------------------------------------------|--------------------------------9--8----------------------------|--6h-8--8h-9--9h-11-11h12---------------------------------------|--------------------------------------11------------------------|--------------------------0M----------------0M----6M----0M------|--------------------------0-----------------0-----6-----0-------|
----------------------------------------------------------------------------|--------9--8--------------9--8--------------------------9--8----------------|----------------------------------------------------------------------------|--------------11----------------11----------------------------11------------|--0-----------------0M----------------0M----6M----0M----------------0-------|--0-----------------0-----------------0-----6-----0-----------------0-------|
----------------------------------------------------------------|--------------------------------9--8----------------------------|--6h-8--8h-9--9h-11-11h12---------------------------------------|--------------------------------------11------------------------|--------------------------0M----------------0M----6M----0M------|--------------------------0-----------------0-----6-----0-------|
----------------------------------------------------------------------------|--------9--8--------------9--8--------------------------9--8----------------|----------------------------------------------------------------------------|----------
Tap to rate this tab
 
# A B C D E F G H I J K L M N O P Q R S T U V W X Y Z