Provision tab with lyrics by August Burns Red - Easy chords and tabs for guitar

August Burns Red – Provision tab



AUGUST BURNS RED 

PROVISION

B-F#-B-E-G#-C#


TABBED BY andherembrace




GT117-13--------------------------13-17-13-----------|------17-14-17-14-------15-17-----------17-15-14--|------------------15-14---------------------------|--------------------------------------------------|--------------------------------------------------|--------------------------------------------------|
GT2--------------------------------------------------|--------------------------------------------------|--------------------------------------------------|-12------------------------0----------------------|-12---------------------00-0----------------------|-12---------------------00-0----------------------| **
GT1--------------------------------------------------|-------14-15-14---------17-14-15-14---------14----|----15---------15-14-15------------15-14-15-------|-17-----------------------------------------------|--------------------------------------------------|--------------------------------------------------|
GT2--------------------------------------------------|--------------------------------------------------|--------------------------------------------------|-3----------------------2-------------------------|-1----------------------0-----------------00------|------------------------------------------00------| **
GT117-13--------------------------13-17-13-----------|------17-14-17-14-------15-17-----------17-15-14--|------------------15-14---------------------------|--------------------------------------------------|--------------------------------------------------|--------------------------------------------------|
GT2--------------------------------------------------|--------------------------------------------------|--------------------------------------------------|-12------------------------0----------------------|-12---------------------00-0----------------------|-12---------------------00-0----------------------| **
GT1--------------------------------------------------|-------14-15-14---------17-14-15-14---------14----|----15---------15-14-15------------15-14-15-------|-17-----------------------------------------------|--------------------------------------------------|--------------------------------------------------|
GT2--------------------------------------------------|--------------------------------------------------|--------------------------------------------------|-3----------------------2-------------------------|-1----------------------0-------------------------|--------------------------------------------------|
0:12
GT117-13--------------------------13-17-13-----------|------17-14-17-14-------15-17-----------17-15-14--|------------------15-14---------------------------|--------------------------------------------------|--------------------------------------------------|--------------------------------------------------|
GT2--------------------------------------------------|--------------------------------------------------|--------------------------------------------------|--------------------------------------------------|-0-0-0-0-0-0-0----------------------0-0-0-0-0-----|-0-0-0-0-0-0-0----------------------0-0-0-0-0-----| * * * * * * * * * * * *
GT1--------------------------------------------------|-------14-15-14---------17-14-15-14---------14----|----15---------15-14-15------------15-14-15-------|-17-----------------------------------------------|--------------------------------------------------|--------------------------------------------------|
GT2--------------------------------------------------|--------------------------------------------------|--------------------------------------------------|--------------------------------------------------|-1--1-1-1-1-1-------------------0-0-0-0-0-0-0-----|-3--3-3-3-3-3-------------------2-2-2-2-2-2-2-----| * * * * * * * * * * * * *
GT117-13--------------------------13-17-13-----------|------17-14-17-14-------15-17-----------17-15-14--|------------------15-14---------------------------|--------------------------------------------------|--------------------------------------------------|--------------------------------------------------|
GT2--------------------------------------------------|--------------------------------------------------|--------------------------------------------------|--------------------------------------------------|-0-0-0-0-0-0-0----------------------0-0-0-0-0-----|-0-0-0-0-0-0-0----------------------0-0-0-0-0-----| * * * * * * * * * * * *
GT1--------------------------------------------------|-------14-15-14---------17-14-15-14---------14----|----15---------15-14-15------------15-14-15-------|-17-----------------------------------------------|--------------------------------------------------|--------------------------------------------------|
GT2--------------------------------------------------|--------------------------------------------------|--------------------------------------------------|--------------------------------------------------|-1--1-1-1-1-1-------------------0-0-0-0-0-0-0-----|-3--3-3-3-3-3-------------------2-2-2-2-2-2-2-----| * * * * * * * * * * * * *
GT117-13--------------------------13-17-13-----------|------17-14-17-14-------15-17-----------17-15-14--|------------------15-14---------------------------|--------------------------------------------------|--------------------------------------------------|--------------------------------------------------|
GT2--------------------------------------------------|--------------------------------------------------|--------------------------------------------------|-0------------------------------------------------|-0---0-0-0-0-0----------------------0-0-0-0-0-----|-0---0-0-0-0-0----------------------0-0-0-0-0-----| * * * * * * * * * *
GT1--------------------------------------------------|-------14-15-14---------17-14-15-14---------14----|----15---------15-14-15------------15-14-15-------|-17-----------------------------------------------|--------------------------------------------------|--------------------------------------------------|
GT2--------------------------------------------------|--------------------------------------------------|--------------------------------------------------|--------------------------------------------------|-1--1-1-1-1-1-------------------0-0-0-0-0-0-0-----|-3--3-3-3-3-3-------------------2-2-2-2-2-2-2-----| * * * * * * * * * * * * *
GT117-13--------------------------13-17-13-----------|------17-14-17-14-------15-17-----------17-15-14--|------------------15-14---------------------------|--------------------------------------------------|--------------------------------------------------|--------------------------------------------------|
GT2--------------------------------------------------|--------------------------------------------------|--------------------------------------------------|-0------------------------------------------------|-0---0-0-0-0-0----------------------0-0-0-0-0-----|-0---0-0-0-0-0----------------------0-0-0-0-0-----| * * * * * * * * * *
GT1------------------------------------------------|-------14-15-14---------17-14-15-14---------14--|----15---------15-14-15------------15-14-15-----|-17---------------------------------------------|------------------------------------------------|------------------------------------------------|
GT2------------------------------------------------|------------------------------------------------|------------------------------------------------|------------------------------------------------|-1--1-1-1-1-1-------------------0-0-0-0-0-0-0---|-3--3-3-3-3-3-------------------2-2-2-2-2-2-2---| * * * * * * * * * * * * *
GT1---------------------|-15~-----------------|---------------------|-----------------P---|------------------S--|--------------------\|
GT2---------------------|---------------------|---------------------|-0--------P----------|-0---------S---------|-0----------\--------|
0:31
GT1------------------------------------------------------------------------|-----------------------------10-6------8---11-8---8----11-10-8---8------|-----------------------7-9-7------9-10---9------9--------------9------9-|---------7-----8---7-8---------------------------------------------11---|-8-0-4/5---5-8----------------------------------------------------------|-----------------0-----------------------------------0------------------|
* *GT2------------------------------------------------------------------------|-----------------------------10-6------8---11-8---8----11-10-8---8------|-----------------------7-9-7------9-10---9------9--------------9------9-|---------7-----8---7-8---------------------------------------------11---|-8-0-4/5---5-8----------------------------------------------------------|-----------------0-----------------------------------0------------------| * *
GT1L-------------------------------------------------------------------------|-----------------------------10-6------8---11-8---8----------------------|-----------------------7-9-7------9-10---9------9------------------------|---------7-----8---7-8-------------------------------8-8-------7-7-11-11-|-8-0-4/5---5-8-------------------------------------------10-10-----------|-----------------0-------------------------------------------------------|
* GT2R------------------------------------------------------------------------|-----------------------------10-6------8---11-8---8---------------------|-----------------------7-9-7------9-10---9------9-------------------9-9-|---------7-----8---7-8------------------------------12-12-8-8-11-11-----|-8-0-4/5---5-8----------------------------------------------------------|-----------------0------------------------------------------------------| *
0:40
GT1------------------------------------------------------------------------|-----------------------------10-6------8---11-8---8----11-10-8---8------|-----------------------7-9-7------9-10---9------9--------------9------9-|---------7-----8---7-8---------------------------------------------11---|-8-0-4/5---5-8----------------------------------------------------------|-----------------0-----------------------------------0------------------|
* *GT2------------------------------------------------------------------------|------------------------------------------------------------------------|-------------------------------------------------------9-9-9-14-14-14---|-------------------------------------------------------X-X-X--X--X--X---|-0-0-0------------0-0-0-0-0-0---0-0-0--7-7-7----7-7-7--7-7-7-12-12-12---|-0-0-0------------0-0-0-0-0-0---0-0-0--7-7-7----7-7-7-------------------| * * * * * * * * * * * *
GT1----------------------------------------------------------------|-----------------------------10-6------8---11-8---8-------------|-----------------------7-9-7------9-10---9------9---------------|---------7-----8---7-8--------------------------------7-7-7-2-3-|-8-0-4/5---5-8--------------------------------------------------|-----------------0----------------------------------------------|
* GT2-----------------------------------------------------------------|-----------------------------------------------------------------|-----------------------------------------------------------------|-------------------------------------------------------7-7-7-2-3-|-0-0-0------------0-0-0-0-0-0---0-0-0--7-7-7----7-7-7--5-5-5-0-1-|-0-0-0------------0-0-0-0-0-0---0-0-0--7-7-7----7-7-7------------| * * * * * * * * * * * *
0:49
---------------------------------------------------------------|---15--15--17-15--15--15--17-15--15--15--17-15--15--15--17-15--|-14--14--14-----14--14--14-----15--15--15-----15--15--15-------|---------------------------------------------------------------|---------------------------------------------------------------|---------------------------------------------------------------| * * * * * * * * * * * *
---------------------------------------------------------------|---15--15--17-15--15--15--17-15--15--15--17-15--15--15--17-15--|-14--14--14-----14--14--14-----15--15--15-----15--15--15-------|---------------------------------------------------------------|---------------------------------------------------------------|---------------------------------------------------------------| * * * * * * * * * * * *
------------17-------------17-------------17-------------17----|---15--15-----15--15--15-----15--15--15-----15--15--15-----15--|-14--14--14-----14--14--14-----15--15--15-----15--15--15-------|---------------------------------------------------------------|---------------------------------------------------------------|---------------------------------------------------------------| * * * * * * * * * * * *
------------17-------------17-------------17-------------17----|---15--15-----15--15--15-----15--15--15-----15--15--15-----15--|-14--14--14-----14--14--14-----15--15--15-----15--15--15-------|---------------------------------------------------------------|---------------------------------------------------------------|---------------------------------------------------------------| * * * * * * * * * * * *
------------17-------------17-------------17-------------17----|---15--15-----15--15--15-----15--15--15-----15--15--15-----15--|-14--14--14-----14--14--14-----15--15--15-----15--15--15-------|---------------------------------------------------------------|---------------------------------------------------------------|---------------------------------------------------------------| * * * * * * * * * * * *
------------17-------------17-------------17-------------17----|---15--15-----15--15--15-----15--15--15-----15--15--15-----15--|-14--14--14-----14--14--14-----15--15--15-----15--15--15-------|---------------------------------------------------------------|---------------------------------------------------------------|---------------------------------------------------------------| * * * * * * * * * * * *
1:12
GT1-----------------------------------------------------------------|----_________________________------------------------------------|---/ \-----------------------------------|---)-------------------------(-----------------------------------|-10-------------------------------8~~----------------------------|-----------------------------------------------------------------|
GT2-----------------------------------------------------------------|-----------------------------------------------------------------|-----------------------------------------------------------------|-----------------------------------------------------------------|-0-0-0-0-0-0-0-0-0-0-0-0-0-0-0-0-8-8-8-8-8-8-8-8-8-8-8-8-8-8-8-8-|-0-0-0-0-0-0-0-0-0-0-0-0-0-0-0-0-8-8-8-8-8-8-8-8-8-8-8-8-8-8-8-8-|
GT1 ____------------------------) (-----------------------------------|-------13-----13~-----13--------10-----------------------------|-10---------------------------------------10-------9/17--------|---------------------------------------------------------------|---------------------------------------------------------------|---------------------------------------------------------------|
GT2-----------------------------------------------------------------|-----------------------------------------------------------------|-----------------------------------------------------------------|-----------------------------------------------------------------|-0-0-0-0-0-0-0-0-0-0-0-0-0-0-0-0-8-8-8-8-8-8-8-8-8-8-8-8-8-8-8-8-|-0-0-0-0-0-0-0-0-0-0-0-0-0-0-0-0-8-8-8-8-8-8-8-8-8-8-8-8-8-8-8-8-|
GT1 )-17------17------17------17-------20-------20--------24-------22~--|----18------18------18------18-------------------------------------|------17------17------17------17--------17-------17----------------|-------------------------------------15-------15-------------------|-------------------------------------------------------------------|-------------------------------------------------------------------|
GT2----------------------------------------|----------------------------------------|----------------------------------------|----------------------------------------|12-12-12-12-12-12-12-12-8-8-8-8-8-8-8-8-|12-12-12-12-12-12-12-12-8-8-8-8-8-8-8-8-|
CONT.----------------------------------------|----------------------------------------|----------------------------------------|----------------------------------------|12-12-12-12-12-12-12-12-8-8-8-8-8-8-8-8-|12-12-12-12-12-12-12-12-8-8-8-8-8-8-8-8-|
1:28
---------------------------------------------------------------|---------------------------------------------------------------|---------------------------------------------------------------|---------------------------------------------------------------|-0000-00-0-0000---0-0000---0000-00-0-0000---0-0000---0000-00---|-0000-00-0-0000---0-0000---0000-00-0-0000---0-0000---0000-00---| **** ** **** * **** **** ** * **** * **** **** **
---------------------------------------------------------------|---------------------------------------------------------------|---------------------------------------------------------------|---------------------------------------------------------------|-0000-00-0-0000---0-0000---0000-00-0-0000---0-0000---0000-00---|-0000-00-0-0000---0-0000---0000-00-0-0000---0-0000---0000-00---| **** ** **** * **** **** ** * **** * **** **** **
1:43
GT1 ___---------) (----------)(-----------------------------------|-------10-----------10----------------------8----8-10-8----|----7------------7-------10-7-9-----9-/10-9---9------------|---------------------------------7----------------------11-|-----------------------------------------------------------|-0------------0--------------------------------------------|
GT2----------------------------------------------------------------|----------------------------------------------------------------|----------------------------------------------------------------|----------------------------------------------------------------|0000-00-0-0000--0-0000--0000-00-0000-00-0-0000--0-0000--0000-00-|0000-00-0-0000--0-0000--0000-00-0000-00-0-0000--0-0000--0000-00-|**** ** * **** * **** **** ** **** ** * **** * **** **** **
GT1 ___---------) (----------)(-----------------------------------|-------10-----------10----------------------8----8-10-8----|----7------------7-------10-7-9-----9-/10-9---9------------|---------------------------------7----------------------11-|-----------------------------------------------------------|-0------------0--------------------------------------------|
GT2----------------------------------------------------------------|----------------------------------------------------------------|----------------------------------------------------------------|----------------------------------------------------------------|0000-00-0-0000--0-0000--0000-00-0000-00-0-0000--0-0000--0000-00-|0000-00-0-0000--0-0000--0000-00-0000-00-0-0000--0-0000--0000-00-|**** ** * **** * **** **** ** **** ** * **** * **** **** **
GT1---------------------------------------------------------------|---------------------------------------------------------------|---------------------------------------------------------------|-12------------------------------------------------------------|---------------------------------------------------------------|---------------------------------------------------------------|
GT2---------------------------------------------------------------|---------------------------------------------------------------|---------------------------------------------------------------|-0-------------------------------------------------------------|-0-------------------------------------------------------------|-0-------------------------------------------------------------|
2:06
GT1 ___---------) (----------)(-----------------------------------|-------10-----------10----------------------8----8-10-8----|----7------------7-------10-7-9-----9-/10-9---9------------|--0------------0-----------------7----------------------11-|-----------------------------------------------------------|-----------------------------------------------------------|
GT2---------17-----------------15---------------------------------|10--/15------14/15-17-18-17---15/17---10---11\10-------10/14-17|-------------------------------------------------12-10---------|---------------------------------------------------------------|---------------------------------------------------------------|---------------------------------------------------------------|
GT1 ___---------) (----------)(-----------------------------------|-------10-----------10----------------------8----8-10-8----|----7------------7-------10-7-9-----9-/10-9---9------------|-0------------0------------------7----------------------11-|-----------------------------------------------------------|-----------------------------------------------------------|
GT2----17-----------------15--------17-------------------------|15------14/15-17-18-17---15/17--------18-17-15-14-15-14-----|--------------------------------------------------------14--|------------------------------------------------------------|------------------------------------------------------------|------------------------------------------------------------|
GT1 ___---------) (----------)(-----------------------------------|-------10-----------10----------------------8----8-10-8----|----7------------7-------10-7-9-----9-/10-9---9------------|---------------------------------7----------------------11-|-----------------------------------------------------------|-0------------0--------------------------------------------|
GT2----17-----------------15---------------------------------|15------14/15-17-18-17---15/17---10---11\10-------10/14-17|--------------------------------------------12-10---------|----------------------------------------------------------|----------------------------------------------------------|----------------------------------------------------------|
GT1 ___---------) (----------)(-----------------------------------|-------10-----------10----------------------8----8-10-8----|----7------------7-------10-7-9-----9-/10-9---9------------|---------------------------------7----------------------11-|-----------------------------------------------------------|-0------------0--------------------------------------------|
GT2----17-----------------15--------17-------------------------|15------14/15-17-18-17---15/17--------18-17-15-14-15-14-----|--------------------------------------------------------14--|------------------------------------------------------------|------------------------------------------------------------|------------------------------------------------------------|
2:39
GT1 ___ ___ ___ ___ ---------) (----------) (----------) (----------) (-------|-------10-----------10-----------10-----------10----------|----7------------7------------7------------7--------------|----------------------------------------------------------|----------------------------------------------------------|-0------------0------------0------------0-----------------|
GT2-----------------------------------------------------|-----------------------------------------------------|-----------------------------------------------------|-----------------------------------------------------|-00--00--00-----------00000---00--00-------000000----|-00--00--00-----------00000---00--00-------000000----| ** ** ** ***** ** ** *****
2:48
GT1L---------17-----------------15---------------------------------|10--/15------14/15-17-18-17---15/17---10---11\10-------10/14-17|-------------------------------------------------12-10---------|---------------------------------------------------------------|---------------------------------------------------------------|---------------------------------------------------------------|
GT2R----------------------------------___----------------|--------___-----------------------) (---------)(-----|--------) (---------)(-----------9-----------9---6---|-------7-----------7---------------------------------|----5-----------5------8-5--7----------7-------------|-0-----------0-----------------7----------7----------|
GT3RYTHM------------------------------------------------------|------------------------------------------------------|------------------------------------------------------|------------------------------------------------------|-00--00--00---0000--00000--00-77--77----777----77777--|-00--00--00---0000--00000--00-77--77----777----77777--| ** ** ** **** ***** ** ** ** *** *****
GT1L----17-----------------15--------17-------------------------|15------14/15-17-18-17---15/17--------18-17-15-14-15-14-----|--------------------------------------------------------14--|------------------------------------------------------------|------------------------------------------------------------|------------------------------------------------------------|
GT2R----------------------------------___----------------|--------___-----------------------) (---------)(-----|--------) (---------)(-----------9-----------9---6---|-------7-----------7---------------------------------|----5-----------5------8-5--7----------7-------------|-0-----------0-----------------7----------7----------|
GT3RYTHM------------------------------------------------------|------------------------------------------------------|------------------------------------------------------|------------------------------------------------------|-00--00--00---0000--00000--00-77--77----777----77777--|-00--00--00---0000--00000--00-77--77----777----77777--| ** ** ** **** ***** ** ** ** *** *****
GT1L----17-----------------15---------------------------------|15------14/15-17-18-17---15/17---10---11\10-------10/14-17|--------------------------------------------12-10---------|----------------------------------------------------------|----------------------------------------------------------|----------------------------------------------------------|
GT2R----------------------------------___----------------|--------___-----------------------) (---------)(-----|--------) (---------)(-----------9-----------9---6---|-------7-----------7---------------------------------|----5-----------5------8-5--7----------7-------------|-0-----------0-----------------7----------7----------|
GT3RYTHM------------------------------------------------------|------------------------------------------------------|------------------------------------------------------|------------------------------------------------------|-00--00--00---0000--00000--00-77--77----777----77777--|-00--00--00---0000--00000--00-77--77----777----77777--| ** ** ** **** ***** ** ** ** *** *****
GT1L----17-----------------15--------17------------------|15------14/15-17-18-17---15/17-----------------------|-----------------------------------------------------|-----------------------------------------------------|-----------------------------------------------------|-----------------------------------------------------|
GT2R----------------------------------___----------------|--------___-----------------------) (---11---13------|--------) (---------)(-----------9------12---14------|-------7-----------7---------------------------------|----5-----------5------8-5--7------------------------|-0-----------0-----------------7---------------------|
GT3RYTHM----------------------------------------------------------------|---------------------------------------------10-8---8-----------|--------------------------------------6-----------9------9------|--------------------------------------7---------------11---8-11-|-00--00--00---0000--00000--00-77--77--7-------------------------|-00--00--00---0000--00000--00-77--77--7-------------------------| ** ** ** **** ***** ** ** **
3:20
GT1------------------------------------------------------------------------|-----------------------------10-6------8---11-8---8----11-10-8---8------|-----------------------7-9-7------9-10---9------9--------------9------9-|---------7-----8---7-8---------------------------------------------11---|-8-0-4/5---5-8----------------------------------------------------------|-----------------0-----------------------------------0------------------|
* *GT2------------------------------------------------------------------------|-----------------------------10-6------8---11-8---8----11-10-8---8------|-----------------------7-9-7------9-10---9------9--------------9------9-|---------7-----8---7-8---------------------------------------------11---|-8-0-4/5---5-8----------------------------------------------------------|-----------------0-----------------------------------0------------------| * *
GT1L-------------------------------------------------------------------------|-----------------------------10-6------8---11-8---8----------------------|-----------------------7-9-7------9-10---9------9------------------------|---------7-----8---7-8-------------------------------8-8-------7-7-11-11-|-8-0-4/5---5-8-------------------------------------------10-10-----------|-----------------0-------------------------------------------------------|
* GT2R------------------------------------------------------------------------|-----------------------------10-6------8---11-8---8---------------------|-----------------------7-9-7------9-10---9------9-------------------9-9-|---------7-----8---7-8------------------------------12-12-8-8-11-11-----|-8-0-4/5---5-8----------------------------------------------------------|-----------------0------------------------------------------------------| *
GT1------------------------------------------------------------------------|-----------------------------10-6------8---11-8---8----11-10-8---8------|-----------------------7-9-7------9-10---9------9--------------9------9-|---------7-----8---7-8---------------------------------------------11---|-8-0-4/5---5-8----------------------------------------------------------|-----------------0-----------------------------------0------------------|
* *GT2------------------------------------------------------------------------|-----------------------------10-6------8---11-8---8----11-10-8---8------|-----------------------7-9-7------9-10---9------9--------------9------9-|---------7-----8---7-8---------------------------------------------11---|-8-0-4/5---5-8----------------------------------------------------------|-----------------0-----------------------------------0------------------| * *
GT1------------------------------------------------------------------------|-----------------------------10-6------8---11-8---8----11-10-8---8------|-----------------------7-9-7------9-10---9------9--------------9------9-|---------7-----8---7-8---------------------------------------------11---|-8-0-4/5---5-8----------------------------------------------------------|-----------------0-----------------------------------0------------------|
* *GT2------------------------------------------------------------------------|-----------------------------10-6------8---11-8---8----11-10-8---8------|-----------------------7-9-7------9-10---9------9--------------9------9-|---------7-----8---7-8---------------------------------------------11---|-8-0-4/5---5-8----------------------------------------------------------|-----------------0-----------------------------------0------------------| * *
3:38
GT1--___----------8----------------------------8---------|--) (---------------------8---10---8-----------8------|-9-------7--------9---10---------------10----------9--|------------------------------------------------------|------------------------------------------------------|------------------------------------------------------|
GT2-----------------------------------------------------------------|-----------------------------------------------------------------|------------------------------------------------5-5-5-5555555555-|1212121212121212121212121212121288888888888888883-3-3-3333333333-|1212121212121212121212121212121288888888888888883-3-3-3333333333-|1212121212121212121212121212121288888888888888883-3-3-3333333333-|
GT2 CONT.---------------------------------|---------------------------------|---------------------------------|10--10--10--10101010101010101010-|10--10--10--10101010101010101010-|10--10--10--10101010101010101010-|
GT1--___------8---------------------8--/13--12--------------------|--) (----------------8--10--8----------------10----------------|-9-----7------9--10-----------10-------------------------------|---------------------------------------------------------------|---------------------------------------------------------------|---------------------------------------------------------------|
GT2-----------------------------------------------------------------|-----------------------------------------------------------------|------------------------------------------------5-5-5-5555555555-|1212121212121212121212121212121288888888888888883-3-3-3333333333-|1212121212121212121212121212121288888888888888883-3-3-3333333333-|1212121212121212121212121212121288888888888888883-3-3-3333333333-|
GT2 CONT.---------------------------------|---------------------------------|---------------------------------|10--10--10--10101010101010101010-|10--10--10--10101010101010101010-|10--10--10--10101010101010101010-|
3:54
GT1-------------------------------------------------|-15-15-15-10-10-10-------------------------10-10-|-------------------12-12-10-10-10-12-12-12-------|-------------------------------------------------|-------------------------------------------------|-------------------------------------------------|
__ __ __ __ / \ / \ / \ / \ ) (-17-13-10-15-13-10-17-13-10-15-13-10--20---------------------8----12---|--------------------------------------------18----13----8--------------|-----------------------------------------------------------------------|-----------------------------------------------------------------------|-----------------------------------------------------------------------|-----------------------------------------------------------------------| T T T T
GT2-----------------------------------------------------------------|-----------------------------------------------------------------|------------------------------------------------5-5-5-5555555555-|1212121212121212121212121212121288888888888888883-3-3-3333333333-|1212121212121212121212121212121288888888888888883-3-3-3333333333-|1212121212121212121212121212121288888888888888883-3-3-3333333333-|
GT2 CONT.---------------------------------|---------------------------------|---------------------------------|10--10--10--10101010101010101010-|10--10--10--10101010101010101010-|10--10--10--10101010101010101010-|
4:03
GT1 __ __ / \ / \-13-15-13-------------17-13-15-13-------17-15-13---------|----------17-13-15-13-------------17-13----------17-13---|---------------------------------------------------------|---------------------------------------------------------|---------------------------------------------------------|---------------------------------------------------------|
__ / \ )-13-15-13-------------17-13-15-13-------17/24---20---15--20--------|----------17-13-15-13-------------17-13----------------------17-18-|-------------------------------------------------------------------|-------------------------------------------------------------------|-------------------------------------------------------------------|-------------------------------------------------------------------|
GT2-----------------------------------------------------------------|-----------------------------------------------------------------|------------------------------------------------5-5-5-5555555555-|1212121212121212121212121212121288888888888888883-3-3-3333333333-|1212121212121212121212121212121288888888888888883-3-3-3333333333-|1212121212121212121212121212121288888888888888883-3-3-3333333333-|
GT2 CONT.---------------------------------|---------------------------------|---------------------------------|10--10--10--10101010101010101010-|10--10--10--10101010101010101010-|10--10--10--10101010101010101010-|
4:12
-------------------------------------------|-------------------------------------------|-------------------------------------------|-------------------------------------------|-0000000-----00000-----1-11111---0000000---|-0000000-----00000-----3-33333---2222222---| ******* ***** * ***** *******
-------------------------------------------|-------------------------------------------|-------------------------------------------|-------------------------------------------|-0000000-----00000-----1-11111---0000000---|-0000000-----00000-----3-33333---2222222---| ******* ***** * ***** *******
4:20
GT117-13--------------------------13-17-13-----------|------17-14-17-14-------15-17-----------17-15-14--|------------------15-14---------------------------|--------------------------------------------------|--------------------------------------------------|--------------------------------------------------|
GT2--------------------------------------------------|--------------------------------------------------|--------------------------------------------------|--------------------------------------------------|-0-0-0-0-0-0-0----------------------0-0-0-0-0-----|-0-0-0-0-0-0-0----------------------0-0-0-0-0-----| * * * * * * * * * * * *
GT1--------------------------------------------------|-------14-15-14---------17-14-15-14---------14----|----15---------15-14-15------------15-14-15-------|-17-----------------------------------------------|--------------------------------------------------|--------------------------------------------------|
GT2--------------------------------------------------|--------------------------------------------------|--------------------------------------------------|--------------------------------------------------|-1--1-1-1-1-1-------------------0-0-0-0-0-0-0-----|-3--3-3-3-3-3-------------------2-2-2-2-2-2-2-----| * * * * * * * * * * * * *
GT117-13--------------------------13-17-13-----------|------17-14-17-14-------15-17-----------17-15-14--|------------------15-14---------------------------|--------------------------------------------------|--------------------------------------------------|--------------------------------------------------|
GT2--------------------------------------------------|--------------------------------------------------|--------------------------------------------------|--------------------------------------------------|-0-0-0-0-0-0-0----------------------0-0-0-0-0-----|-0-0-0-0-0-0-0----------------------0-0-0-0-0-----| * * * * * * * * * * * *
GT1---------------------------------------------------|-------14-15-14---------17-14-15-14---------14-----|----15---------15-14-15------------15-14-15--------|-17------------------------------------------------|------------------------------------------------0--|------------------------------------------------0--|
GT2---------------------------------------------------|---------------------------------------------------|---------------------------------------------------|---------------------------------------------------|-1--1-1-1-1-1-------------------0-0-0-0-0-0-0---0--|-3--3-3-3-3-3-------------------2-2-2-2-2-2-2---0--| * * * * * * * * * * * * *
Please rate this tab:
x1.0