August Burns Red - Pride And Humility tab

PRIDE AND HUMILITY
As recorded by August Burns Red
(From the 2007 Album THIS IS SOLID STATE VOLUME 6)

Transcribed by Chris Allan
All guitars in Drop C tuning - CGCFAD

For those without powertab...enjoy. This song is awesome. 

Words and Music by ABR
Arranged by ABR

Intro Q=146 D5 N.C. D5 N.C. 4/4 Gtrs I, II PM----| PM----||------------------------|-------------------------||------------------------|-------------------------||------------------9h10--|------------------9h10-9-||----------------7-------|----------------7--------||-12-0-0-0-0-7h8---------|-12-0-0-0-0-7h8----------||-12-0-0-0-0-------------|-12-0-0-0-0--------------|
D5 N.C. 2/4 PM------------------------------||--------------------------|------------------------|------------------||--------------------------|------------------------|-8h10-------------||--------------------------|-----------------9h10-9-|------9h10-----10-||--------------------------|---------------7--------|-----------7h8----||-12-0-0-0-0-0-0-0-0-0-0-0-|-0-0-0-0-0-7h8----------|------------------||-12-0-0-0-0-0-0-0-0-0-0-0-|-0-0-0-0-0--------------|------------------|
Bb5 4/4|-------------------------------------------------||-------------------------------------------------||-------------------------------------------------||--8--8--8--8--8--8--8--8--8--8--8--8--8--8--8--8-||--8--8--8--8--8--8--8--8--8--8--8--8--8--8--8--8-||--8--8--8--8--8--8--8--8--8--8--8--8--8--8--8--8-|
|
| Gtr III|-------------------------------------------------||-------------------------------------------------||-10-10-10-10-10-10-10-10-10-10-10-10-10-10-10-10-||--x--x--x--x--x--x--x--x--x--x--x--x--x--x--x--x-||--8--8--8--8--8--8--8--8--8--8--8--8--8--8--8--8-||-------------------------------------------------|
C5|--------------------------------------------------||--------------------------------------------------||--------------------------------------------------||-10-10-10-10-10-10-10-10-10-10-10-10-10-10-10-10--||-10-10-10-10-10-10-10-10-10-10-10-10-10-10-10-10--||-10-10-10-10-10-10-10-10-10-10-10-10-10-10-10-10--|
|
|--------------------------------------------------||--------------------------------------------------||-14-14-14-14-14-14-14-14-14-14-14-14-14-14-14-14--||--x--x--x--x--x--x--x--x--x--x--x--x--x--x--x--x--||-12-12-12-12-12-12-12-12-12-12-12-12-12-12-12-12--||--------------------------------------------------|
D5 N.C. PM---------||-------------------------------------------------||-------------------------------------------------||-----------------------------------9h10----------||--------------------------------7----------------||-12-----0--0-----0--0-----7h=8-------------------||-12-----0--0-----0--0----------------------------|
|
|-------------------------------------------------||-------------------------------------------------||-10-10-10-10-10-10-10-10-10-10-10-10-10-10-10-10-||--x--x--x--x--x--x--x--x--x--x--x--x--x--x--x--x-||--8--8--8--8--8--8--8--8--8--8--8--8--8--8--8--8-||-------------------------------------------------|
D5 N.C. PM---------||-------------------------------------------------||-------------------------------------------------||-----------------------------------9h10-----9----||--------------------------------7----------------||-12-----0--0-----0--0-----7h=8-------------------||-12-----0--0-----0--0----------------------------|
|
|-------------------------------------------------||-------------------------------------------------||-14-14-14-14-14-14-14-14-14-14-14-14-14-14-14-14-||--x--x--x--x--x--x--x--x--x--x--x--x--x--x--x--x-||-12-12-12-12-12-12-12-12-12-12-12-12-12-12-12-12-||-------------------------------------------------|
D5 N.C. 2/4 PM------------------------------||--------------------------|------------------------|------------------||--------------------------|------------------------|-8h10-------------||--------------------------|-----------------9h10-9-|------9h10-----10-||--------------------------|---------------7--------|-----------7h8----||-12-0-0-0-0-0-0-0-0-0-0-0-|-0-0-0-0-0-7h8----------|------------------||-12-0-0-0-0-0-0-0-0-0-0-0-|-0-0-0-0-0--------------|------------------|
Bb5 4/4|-------------------------------------------------||-------------------------------------------------||-------------------------------------------------||--8--8--8--8--8--8--8--8--8--8--8--8--8--8--8--8-||--8--8--8--8--8--8--8--8--8--8--8--8--8--8--8--8-||--8--8--8--8--8--8--8--8--8--8--8--8--8--8--8--8-|
|
| Gtr III|-------------------------------------------------||-------------------------------------------------||-10-10-10-10-10-10-10-10-10-10-10-10-10-10-10-10-||--x--x--x--x--x--x--x--x--x--x--x--x--x--x--x--x-||--8--8--8--8--8--8--8--8--8--8--8--8--8--8--8--8-||-------------------------------------------------|
C5|--------------------------------------------------||--------------------------------------------------||--------------------------------------------------||-10-10-10-10-10-10-10-10-10-10-10-10-10-10-10-10--||-10-10-10-10-10-10-10-10-10-10-10-10-10-10-10-10--||-10-10-10-10-10-10-10-10-10-10-10-10-10-10-10-10--|
|
|--------------------------------------------------||--------------------------------------------------||-14-14-14-14-14-14-14-14-14-14-14-14-14-14-14-14--||--x--x--x--x--x--x--x--x--x--x--x--x--x--x--x--x--||-12-12-12-12-12-12-12-12-12-12-12-12-12-12-12-12--||--------------------------------------------------|
D5|-------------------------------------------------||-------------------------------------------------||-------------------------------------------------||-12-12-12-12-12-12-12-12-12-12-12-12-12-12-12-12-||-12-12-12-12-12-12-12-12-12-12-12-12-12-12-12-12-||-12-12-12-12-12-12-12-12-12-12-12-12-12-12-12-12-|
|
|-------------------------------------------------||-------------------------------------------------||-10-10-10-10-10-10-10-10-10-10-10-10-10-10-10-10-||--x--x--x--x--x--x--x--x--x--x--x--x--x--x--x--x-||--8--8--8--8--8--8--8--8--8--8--8--8--8--8--8--8-||-------------------------------------------------|
N.C. PM PM PM PM|-------------------------------------------------||-------------------------------------------------||-10-----------9-----------7-----------5----------||--x-----------x-----------x-----------x----------||--8-----0-----7-----0-----5-----0-----3-----0----||--------0-----------0-----------0-----------0----|
|
|-------------------------------------------------||-------------------------------------------------||-14-14-14-14-14-14-14-14-14-14-14-14-14-14-14-14-||--x--x--x--x--x--x--x--x--x--x--x--x--x--x--x--x-||-12-12-12-12-12-12-12-12-12-12-12-12-12-12-12-12-||-------------------------------------------------|
Bb5|-------------------------------------------------||-------------------------------------------------||-------------------------------------------------||--8--8--8--8--8--8--8--8--8--8--8--8--8--8--8--8-||--8--8--8--8--8--8--8--8--8--8--8--8--8--8--8--8-||--8--8--8--8--8--8--8--8--8--8--8--8--8--8--8--8-|
|
|-------------------------------------------------||-------------------------------------------------||-10-10-10-10-10-10-10-10-10-10-10-10-10-10-10-10-||--x--x--x--x--x--x--x--x--x--x--x--x--x--x--x--x-||--8--8--8--8--8--8--8--8--8--8--8--8--8--8--8--8-||-------------------------------------------------|
C5 PM---------------------------------------||-------------------------------------------------||-------------------------------------------------||-------------------------------------------------||-------------------------------------------------||-10----10----10----10----10----10----10----10----||-10----10----10----10----10----10----10----10----|
|
|-------------------------------------------------||-------------------------------------------------||-14-14-14-14-14-14-14-14-14-14-14-14-14-14-14-14-||--x--x--x--x--x--x--x--x--x--x--x--x--x--x--x--x-||-12-12-12-12-12-12-12-12-12-12-12-12-12-12-12-12-||-------------------------------------------------|
D5 N.C. PM---------||-------------------------------------------------||-------------------------------------------------||-----------------------------------9h10----------||--------------------------------7----------------||-12-----0--0-----0--0-----7h=8-------------------||-12-----0--0-----0--0----------------------------|
|
|-------------------------------------------------||-------------------------------------------------||-10-10-10-10-10-10-10-10-10-10-10-10-10-10-10-10-||--x--x--x--x--x--x--x--x--x--x--x--x--x--x--x--x-||--8--8--8--8--8--8--8--8--8--8--8--8--8--8--8--8-||-------------------------------------------------|
D5 N.C. PM---------||-------------------------------------------------||-------------------------------------------------||-----------------------------------9h10-----9----||--------------------------------7----------------||-12-----0--0-----0--0-----7h=8-------------------||-12-----0--0-----0--0----------------------------|
|
|-------------------------------------------------||-------------------------------------------------||-10-10-10-10-10-10-10-10-10-10-10-10-10-10-10-10-||--x--x--x--x--x--x--x--x--x--x--x--x--x--x--x--x-||--8--8--8--8--8--8--8--8--8--8--8--8--8--8--8--8-||-------------------------------------------------|
D5 N.C. 2/4 PM------------------------------||--------------------------|------------------------|------------------||--------------------------|------------------------|-8h10-------------||--------------------------|-----------------9h10-9-|------9h10-----10-||--------------------------|---------------7--------|-----------7h8----||-12-0-0-0-0-0-0-0-0-0-0-0-|-0-0-0-0-0-7h8----------|------------------||-12-0-0-0-0-0-0-0-0-0-0-0-|-0-0-0-0-0--------------|------------------|
Q=180 Bb5 G5 A5 3/4 PM------------------| PM----| PM----||------------|-------------|------------|------------|||------------|-------------|------------|------------|||------------|-------------|------------|------------|||-8----------|-------------|-5----------|-7----------|||-8--8-8-8-8-|-8-8-8-8-8-8-|-5--5-5-5-5-|-7--7-7-7-7-|||-8--8-8-8-8-|-8-8-8-8-8-8-|-5--5-5-5-5-|-7--7-7-7-7-||
Q=140 D5 4/4 3/4 Gtr I PM| PM| PM PM PM|-------------------|------------------------------------||-------------------|------------------------------------||-------------------|------------------------------------||---------8p7p5-----|-10--(10)s8-------------------------||-8-7-0-0-------0-0-|------------0-10-(10)s8-0-7-(7)s8-0-||-----0-0-------0-0-|------------0-----------0---------0-|
|
| Gtr II|-------------------|------------------------------------||-------------------|------------------------------------||-------------------|------------------------------------||-0-----------------|-(0)--------------------------------||-0-----------------|-(0)--------------------------------||-0-----------------|-(0)--------------------------------|
N.C.D5 N.C. D5 N.C. D5N.C. D5N.C. D5 4/4 3/4 Gtrs I, II PM| PM| PM PM PM 3x||--------------------|------------------------------------||||o-------------------|-----------------------------------o||||--------------------|------------------------------------||||----------8p7p5-----|-10-(10)s8--------------------------||||o-8-7-0-0-------0-0-|-----------0-10-(10)s8-0-7-(7)s8-0-o||||------0-0-------0-0-|-----------0-----------0---------0--||
N.C. D5 N.C. D5 N.C. D5 PM| PM| PM| 3x||-----------------------|-----------------------||||o----------------------|----------------------o||||--7-7-7-7-----14-14-14-|-14-----9-9-10-10------||||--x-x-x-x------x--x--x-|--x-----x-x--x--x------||||o-5-5-5-5-0-0-12-12-12-|-12-0-0-7-7--8--8-0-0-o||||----------0-0----------|----0-0-----------0-0--||
N.C. D5 F5 D5 G5 F5 Gtr I PM| PM| 3x||-------------------------|------------------------||||o------------------------|-----------------------o||||--14---14----------------|------------------------||||---x----x--------3-----3-|-(3)-----5----5--3---3--||||o-12---12---0-0--3-----3-|-(3)-0-0-5----5--3---3-o||||------------0-0--3-----3-|-(3)-0-0-5----5--3---3--||
|
| Gtr II| PM| PM| PM|| 3x||-------------------------|------------------------||||o------------------------|-----------------------o||||---7-7--7-7-----14-14-14-|-14------9-9-10-10------||||---x-x--x-x------x--x--x-|--x------x-x--x--x------||||o--5-5--5-5-0-0-12-12-12-|-12--0-0-7-7--8--8-0-0-o||||------------0-0----------|-----0-0-----------0-0--||
N.C. D5 N.C. D5 N.C. F5 G5 4/4 Gtrs I, II PM| PM| 4x||----------------------|----------------------||||o---------------------|---------------------o||||----------------------|-------10-9-7---------||||--7h8p0-----7h8p0-----|-----7--------3-3-5---||||o-------0-0-------0-0-|-7h8----------3-3-5--o||||--------0-0-------0-0-|--------------3-3-5---||
"Please do yourself a..." D5 Bb5 Gtr I||------------------------|-------------------------|||o-----------------------|-------11-10-------11-10-|||--7-7-7-10-9-7-7-7-10-9-|-------------------------|||------------------------|-8-8-8-------8-8-8-------|||o-----------------------|-------------------------|||------------------------|-------------------------|
|
| Gtr II||------------------------|-------------------------|||o-----------------------|-------------------------|||------------------------|-------------------------|||--0---------------------|-8-----------------------|||o-0---------------------|-8-----------------------|||--0---------------------|-8-----------------------|
F5 C/E 4x|-----------------------|----------------------|||-----------------------|---------------------o|||-------9-10-------9-10-|----------------------|||-----------------------|-------------8-7-5----|||-8-8-8------8-8-8------|-8-12-10-8-7---------o|||-----------------------|----------------------||
|
| 4x|-----------------------|----------------------|||-----------------------|---------------------o|||-----------------------|----------------------|||-3---------------------|----------------------|||-3---------------------|-3-------------------o|||-3---------------------|-2--------------------||
Q=146 D5 N.C. D5 N.C. Gtrs I, II|------------------|-------------------||------------------|-------------------||------------9h10--|------------9h10-9-||-0--------7-------|-0--------7--------||-0----7h8---------|-0----7h8----------||-0----------------|-0-----------------|
D5 N.C. Bb5C5|-------------------|-------------------------|||-------------------|-8h10--------------------|||------------9h10-9-|------9h10-----10--------|||-0--------7--------|-----------7h8----8--10--|||-0----7h8----------|------------------8--10--|||-0-----------------|------------------8--10--||
"Arrogance has never..." D5 N.C. PM----------| PM------| PM----------||---------------------------|----------------------------||---------------------------|----------------------------||---------------------------|----------------------9h10--||---------------------------|--------------------7-------||-0-0-0-0-0-0-0--0-0-0-0-0--|-0-0-0-0-0-0-0--7h8---------||-0-0-0-0-0-0-0--0-0-0-0-0--|-0-0-0-0-0-0-0--------------|
D5 N.C. PM----------| PM------| PM----------||---------------------------|-----------------------------||---------------------------|-----------------------------||---------------------------|----------------------9h10-9-||---------------------------|--------------------7--------||-0-0-0-0-0-0-0--0-0-0-0-0--|-0-0-0-0-0-0-0--7h8----------||-0-0-0-0-0-0-0--0-0-0-0-0--|-0-0-0-0-0-0-0---------------|
D5 N.C. Gtr I PM----------| PM------| PM----------||---------------------------|-----------------------------||---------------------------|-----------------------------||---------------------------|----------------------9h10-9-||---------------------------|--------------------7--------||-0-0-0-0-0-0-0--0-0-0-0-0--|-0-0-0-0-0-0-0--7h8----------||-0-0-0-0-0-0-0--0-0-0-0-0--|-0-0-0-0-0-0-0---------------|
|
| Gtr II| PM----------| PM------| PM----------||---------------------------|-----------------------------||---------------------------|------------------------10-8-||---------------------------|----------------------9------||---------------------------|--------------------7--------||-0-0-0-0-0-0-0--0-0-0-0-0--|-0-0-0-0-0-0-0--7h8----------||-0-0-0-0-0-0-0--0-0-0-0-0--|-0-0-0-0-0-0-0---------------|
D5 N.C. Bb5C5 Gtrs I, II PM----------| PM------||---------------------------|-------------------------||---------------------------|-8h10--------------------||---------------------------|------9h10-----10--------||---------------------------|-----------7h8----8--10--||-0-0-0-0-0-0-0--0-0-0-0-0--|------------------8--10--||-0-0-0-0-0-0-0--0-0-0-0-0--|------------------8--10--|
D5 N.C. PM----------------------||-----------------|---------------------||-----------------|---------------------||-----------------|---------------9h10--||-0-------0-------|-0-----------7-------||-0-0-0-0-0-0-0-0-|-0-0-0-0-7h8---------||-0-0-0-0-0-0-0-0-|-0-0-0-0-------------|
D5 N.C. PM----------------------||-----------------|----------------------||-----------------|----------------------||-----------------|---------------9h10-9-||-0-------0-------|-0-----------7--------||-0-0-0-0-0-0-0-0-|-0-0-0-0-7h8----------||-0-0-0-0-0-0-0-0-|-0-0-0-0--------------|
D5 N.C. Gtr I PM--| PM--| PM--||-------------------|-----------------------||-------------------|-----------------------||-------------------|----------------9h10-9-||-------------------|--------------7--------||-12-0-0-0-12-0-0-0-|-12-0-0-0-7h8----------||-12-0-0-0-12-0-0-0-|-12-0-0-0--------------|
|
| Gtr II| PM--| PM--| PM--||-------------------|-----------------------||-------------------|------------------10-8-||-------------------|----------------9------||-------------------|--------------7--------||-12-0-0-0-12-0-0-0-|-12-0-0-0-7h8----------||-12-0-0-0-12-0-0-0-|-12-0-0-0--------------|
Q=128 D5 N.C. Bb5C5 Gtrs I, II PM------------||-----------------|-------------------------|||-----------------|-8h10--------------------|||-----------------|------9h10-----10--------|||-----------------|-----------7h8----8--10--|||-0-0-0-0-0-0-0-0-|------------------8--10--|||-0-0-0-0-0-0-0-0-|------------------8--10--||
Outro Breakdown D5 PM----------------------------------|||-------------------|--------------------|||o------------------|--------------------|||-------------------|--------------------|||-------------------|--------------------|||o-0-0-0-0--0-0-0-0-|--0-0-0-0-0-0-0-0-0-|||--0-0-0-0--0-0-0-0-|--0-0-0-0-0-0-0-0-0-|
D5 Bb5D5Bb5D5N.C. PM-------------| PM PM|------------------|------------------|||------------------|-----------------o|||------------------|------------------|||------------------|-8----8----[10]---|||-0-0-0-0--0-0-0-0-|-8--0-8--0-------o|||-0-0-0-0--0-0-0-0-|-8--0-8--0--------||
N.C. D5 PM|-----------|--------*||-----------|--------*||-x\--------|--------*||-x\--------|--------*||-----------|-0------*||-----------|-0------*|
** Generated using Power Tab Editor by Brad Larsen: The Official Power Tab Web Site
Tap to rate this tab
 
# A B C D E F G H I J K L M N O P Q R S T U V W X Y Z