Avalanch - Torquemada tab

Avalanch
"Torquemada"
Llanto de un heroe
Tabbed by Kevin Cruz

(CHECK THEIR OFFICIAL WEBSITE, WWW.AVALANCH.NET)
(CHEQUEA EL SITIO DE AVALANCH, WWW.AVALANCH.NET)

Eb Tuning

INTRO 8x|-------|--------||---------------||---------||-------|--------||---------------||---------||-------|--------||---------------||---------||-------|--------||---------------||---------||-2--2--|--2--2--||-2-2-2-222-222-||-2-2-2-2-||-0--0--|--0--0--||-0-0-0-000-000-||-0-0-0-0-| . . . ... ... . . . .
INTRO SOLO#1 (Play this part until it finishes) (Toca esta parte hasta que termina)
|-h7p0-h3p0-h5p0-h7p0-|-h5p0-h2p0-h4p0-h5p0-||---------------------|---------------------||---------------------|---------------------||---------------------|---------------------||---------------------|---------------------||---------------------|---------------------|
|
|---------------------|---------------------||---------------------|---------------------||---------------------|---------------------||-9-------------------|-7-------------------||-7-7-7-7-7-7-7-7-7-7-|-5-5-5-5-5-5-5-5-5-5-||---------------------|---------------------|
|-h9p0-h6p0-h8p0-h9p0-|-h5p0-h7p0-h4p0-h2p0-||---------------------|---------------------||---------------------|---------------------||---------------------|---------------------||---------------------|---------------------||---------------------|---------------------|
|
|---------------------|---------------------||---------------------|---------------------||---------------------|---------------------||-9-------------------|---------------------||-7-7-7-7-7-7-7-7-7-7-|-7-7-7-7-7-7-7-7-7-7-||---------------------|---------------------|
|-h7p0-h3p0-h5p0-h7p0-|-h5p0-h2p0-h4p0-h5p0-||---------------------|---------------------||---------------------|---------------------||---------------------|---------------------||---------------------|---------------------||---------------------|---------------------|
|
|---------------------|---------------------||---------------------|---------------------||---------------------|---------------------||-9-------------------|-7-------------------||-7-7-7-7-7-7-7-7-7-7-|-5-5-5-5-5-5-5-5-5-5-||---------------------|---------------------|
|-h9p0-h6p0-h8p0-h9p0-|-h5p0-h7p0-----2-----||---------------------|---------------------||---------------------|---------------------||---------------------|---------------------||---------------------|---------------------||---------------------|---------------------|
|
|---------------------|---------------------||---------------------|---------------------||---------------------|---------------------||---------------------|----7----------------||-9-------------------|----5--------9-------||-7-7-7-7-7-7-7-7-7-7-|-------------7-------|
RIFF 1 3x|-------------------------|------------------------||-------------------------|------------------------||-------------------------|------------------------||-------------------------|----------------0h5h7h9-||-2-2-2-2-9-7-5-0---------|-2-2-2-2-0h5h7h9--------||-0-0-0-0---------9-7-5-0-|-0-0-0-0----------------| . . . . . . . . . . . . . . . .
|-------------------------|------------||-------------------------|------------||-------------------------|------------||-------------------------|------------||-2-2-2-2-9-7-5-0---------|---5---7----||-0-0-0-0---------9-7-5-0-|---3---5----| . . . . . . . . . . . .
INTRO SOLO#2
|---------------------------------------------------------------||----------------------------------------13-----13-15--13-15-16-||---------12-----12-14--12-14-15-13-15-16--15-16-----16---------||-12-14-15--14-15-----15----------------------------------------||---------------------------------------------------------------||---------------------------------------------------------------|
|-13-15-17-15-17-19-17-19-20--19~-||---------------------------------||---------------------------------||---------------------------------||---------------------------------||---------------------------------|
VERSE 1
|-------------------------|-----------------||-------------------------|-----------------||-------------------------|-----------------||-------------------------|---------------7-||-2-----------------------|---------------5-||-0-0-0-0-0-0-0-0-0-0-0-0-|-0-0-0-0-0-0-0---| . . . . . . . . . . . . . . . . . .
|-------------------------|-----------------||-------------------------|-----------------||-------------------------|-----------------||-------------------------|-----------5--4--||-2-----------------------|-----------3--2--||-0-0-0-0-0-0-0-0-0-0-0-0-|-0-0-0-0-0-------| . . . . . . . . . . . . . . . .
|-------------------------|-----------------||-------------------------|-----------------||-------------------------|-----------------||-------------------------|---------------7-||-2-----------------------|---------------5-||-0-0-0-0-0-0-0-0-0-0-0-0-|-0-0-0-0-0-0-0---| . . . . . . . . . . . . . . . . . .
|-------------------------|-----------------||-------------------------|-----------------||-------------------------|-----------------||-------------------------|-----------5--4--||-2-----------------------|-----------3--2--||-0-0-0-0-0-0-0-0-0-0-0-0-|-0-0-0-0-0-------| . . . . . . . . . . . . . . . .
|-----------------|-----------------|-----------------|-----------------||-----------------|-----------------|-----------------|-----------------||-----------------|-----------------|-----------------|-----------------||-5---------------|-7---------------|-----------------|-----------------||-3-3-3-3-3-3-3-3-|-5-5-5-5-5-5-5-5-|-5---------4-----|-----2-----------||-----------------|-----------------|-3-3-3-3-3-2-2-2-|-2-2-0-0-0-0-0-0-| . . . . . . . . . . . . . . . . . . . . . . . . . . .
|-----------------|-----------------|-----------------|-----------------||-----------------|-----------------|-----------------|-----------------||-----------------|-----------------|-----------------|-----------------||-5---------------|-7---------------|-----------------|-----------------||-3-3-3-3-3-3-3-3-|-5-5-5-5-5-5-5-5-|-5---------4-----|-----2-----------||-----------------|-----------------|-3-3-3-3-3-2-2-2-|-2-2-0-0-0-0-0-0-| . . . . . . . . . . . . . . . . . . . . . . . . . . .
RIFF 1 |-------------------------|------------------------||-------------------------|------------------------||-------------------------|------------------------||-------------------------|----------------0h5h7h9-||-2-2-2-2-9-7-5-0---------|-2-2-2-2-0h5h7h9--------||-0-0-0-0---------9-7-5-0-|-0-0-0-0----------------| . . . . . . . . . . . . . . . .
|-------------------------|------------||-------------------------|------------||-------------------------|------------||-------------------------|------------||-2-2-2-2-9-7-5-0---------|---5---7----||-0-0-0-0---------9-7-5-0-|---3---5----| . . . . . . . . . . . .
VERSE 1
|-------------------------|-----------------||-------------------------|-----------------||-------------------------|-----------------||-------------------------|---------------7-||-2-----------------------|---------------5-||-0-0-0-0-0-0-0-0-0-0-0-0-|-0-0-0-0-0-0-0---| . . . . . . . . . . . . . . . . . .
|-------------------------|-----------------||-------------------------|-----------------||-------------------------|-----------------||-------------------------|-----------5--4--||-2-----------------------|-----------3--2--||-0-0-0-0-0-0-0-0-0-0-0-0-|-0-0-0-0-0-------| . . . . . . . . . . . . . . . .
|-------------------------|-----------------||-------------------------|-----------------||-------------------------|-----------------||-------------------------|---------------7-||-2-----------------------|---------------5-||-0-0-0-0-0-0-0-0-0-0-0-0-|-0-0-0-0-0-0-0---| . . . . . . . . . . . . . . . . . .
|-------------------------|-----------------||-------------------------|-----------------||-------------------------|-----------------||-------------------------|-----------5--4--||-2-----------------------|-----------3--2--||-0-0-0-0-0-0-0-0-0-0-0-0-|-0-0-0-0-0-------| . . . . . . . . . . . . . . . .
|-----------------|-----------------|-----------------|-----------------||-----------------|-----------------|-----------------|-----------------||-----------------|-----------------|-----------------|-----------------||-5---------------|-7---------------|-----------------|-----------------||-3-3-3-3-3-3-3-3-|-5-5-5-5-5-5-5-5-|-5---------4-----|-----2-----------||-----------------|-----------------|-3-3-3-3-3-2-2-2-|-2-2-0-0-0-0-0-0-| . . . . . . . . . . . . . . . . . . . . . . . . . . .
|-----------------|-----------------|-----------------|-----------------||-----------------|-----------------|-----------------|-----------------||-----------------|-----------------|-----------------|-----------------||-5---------------|-7---------------|-----------------|-----------------||-3-3-3-3-3-3-3-3-|-5-5-5-5-5-5-5-5-|-5---------4-----|-----2-----------||-----------------|-----------------|-3-3-3-3-3-2-2-2-|-2-2-0-0-0-0-0-0-| . . . . . . . . . . . . . . . . . . . . . . . . . . .
(THATS ALL I CAN FIGURE OUT, I'LL FIGURE OUT THE CHORUS SOON) (ESO ES QUE YO PUEDO HACER, VOY A HACER EL CHORUS PRONTO)
Tap to rate this tab
 
# A B C D E F G H I J K L M N O P Q R S T U V W X Y Z