Avenged Sevenfold - Mia tab version 2

-------------10----12----|-13---------------13-15-16--(16)b17-----||----------10----10----10-|----9-------13--------------------------||-------10----------------|---------13-----------------------------||-11-12-------------------|------15--------------------------------||-------------------------|----------------------------------------||-------------------------|----------------------------------------|
|
| Gtrs IV, V|-------------------------|----------------------------------------||-------------------------|----------------------------------------||--7--7-------------------|----------------------------------------||--7--7-------------------|----------------------------------------||--5--5-------------------|---------------/8-------(8)---7-----5-7-||-------------------------|----------------------------------------|
Bb5 N.C. ~~|-/20-18-----------------------|----------8-6-----13-----------------||--------18--------------------|--------------6-------13-------------||-----------19-(19)------------|--------7-------7--------10----------||-------------------20-(20)-19-|-(19)S8---------------------10-12----||------------------------------|-------------------------------------||------------------------------|-------------------------------------|
|
|------------------------------|-------------------------------------||------------------------------|-------------------------------------||---3--3-----------------------|-------------------------------------||---3--3-----------------------|--------------3---(3)----------------||---1--1-----------------------|---3--5---1---------------1-----3-5--||------------------------------|-------------------------------------|
C5|-------------------------20-15-------18-15-------||-------------11-14-13-11-------17----------17----||-------10-12----------------------17----------17-||-10-12-------------------------------------------||-------------------------------------------------||-------------------------------------------------|
|-18--15-20-15-------------------||--------------17-15-------------||--------------------17-15-------||--------------------------17----||--------------------------------||--------------------------------|
|-------------------------------------------------||-------------------------------------------------||--5-----5-----------------------------5-----5----||--5-----5-----------------------------5-----5----||--3-----3-----------------------------3-----3----||-------------------------------------------------|
|--------------------------------||--------------------------------||-(5)----------------------------||-(5)----------------------------||-(3)----------------------------||--------------------------------|
A5 Dbm Em Dbm ~~|-----------------9-10-12--17-(17)-(17)b18---||--------------10----------------------------||----9---10-12-------------------------------||-11-----------------------------------------||--------------------------------------------||--------------------------------------------|
|-(17)---9-9-10---10-12--12---12s15----||--------------------------------------||--------------------------------------||--------------------------------------||--------------------------------------||--------------------------------------|
|--------------------------------------------||--------------------------------------------||--2---2-------------------------------------||--2---2----------2----(2)--2--------------5-||--0---0----------4----(4)--4--------------7-||--------------------------------------------|
|--------------------------------------||--------------------------------------||---------------6----(6)----6-----6----||--(5)-5--------2----(2)----2-----2----||--(7)-7--------4----(4)----4-----4----||--------------------------------------|
D5 N.C.|-17-13-13-12-------12-8-8--------------------||-------------13-----------10-8------------10-||----------------14-------------9-------10----||---------------------------------11-12-------||---------------------------------------------||---------------------------------------------|
|
|---------------------------------------------||---------------------------------------------||--7-----7------------------------------------||--7-----7------------------------------------||--5-----5------------------------------------||---------------------------------------------|
|-------------------13-10----------10-13--17-13-------13-17-20-17-------17-||-13-11-10-------10-------11----11-----------------15----------------18----||-------------10-------------12-----------------14----------------19-------||----------12--------------------------------------------------------------||--------------------------------------------------------------------------||--------------------------------------------------------------------------|
|
|--------------------------------------------------------------------------||--------------------------------------------------------------------------||--------------------------------------------------------------------------||--------------------------------------------------------------------------||----------------------------/8-------(8)--------7--------5--------7-------||--------------------------------------------------------------------------|
Bb5 N.C.|----------------15-18-15-15----15-18-15-15----15-||-------------18-------------18-------------18----||-19---(19)\--------------------------------------||-------------------------------------------------||-------------------------------------------------||-------------------------------------------------|
|
|-------------------------------------------------||-------------------------------------------------||--3-3--------------------------------------------||--3-3--------------------------------------------||--1-1--------------------------------------------||-------------------------------------------------|
|----10-13-10-10----10-13-10-10----10-------5-----5-8-6-5-------||-13-------------13-------------13--------6-----6---------8-6-5-||--------------------------------------7------7-----------------||---------------------------------------------------------------||---------------------------------------------------------------||---------------------------------------------------------------|
|
|---------------------------------------------------------------||---------------------------------------------------------------||---------------------------------------------------------------||-----------------------------3-------(3)-----------------------||--3--------5--------1------------------------1-----3-----5-----||---------------------------------------------------------------|
C5
|-10b12-(10)-----------8-12-8-12-||------------------5-8-----------||----------------7---------------||--------------8-----------------||--------------------------------||--------------------------------|
|-/15--10-12-10-/20-18-17-/19-17-16-/18-16-15-/17-15-14-/17-15-14-/16-14-13||--------------------------------------------------------------------------||--------------------------------------------------------------------------||--------------------------------------------------------------------------||--------------------------------------------------------------------------||--------------------------------------------------------------------------|
|--------------------------------||--------------------------------||--5------5------------5----5----||--5------5------------5----5----||--3------3------------3----3----||--------------------------------|
|--------------------------------------------------------------------------||--------------------------------------------------------------------------||--(5)---------------------------------------------------------------------||--(5)---------------------------------------------------------------------||--(3)---------------------------------------------------------------------||--------------------------------------------------------------------------|
A5 Dbm Em Dbm|-12-13-15-18-(18)-17-(17)-12-|-(12)-15-(15)----------------10-12-13-15---|||-14-15-17-20-(20)-18-(18)-14-|-(14)-17-(17)----8--10-11-13-11-13-15-17---|||-----------------------------|-----------------9--10-12-14---------------|||-----------------------------|-------------------------------------------|||-----------------------------|-------------------------------------------|||-----------------------------|-------------------------------------------||
|-----------------------------|-------------------------------------------|||-----------------------------|-------------------------------------------|||--2--2-----------------------|--------------6-(6)-----6-----6------------|||--2--2-----2--(2)--2-------5-|--(5)--5------2-(2)-----2-----2------------|||--0--0-----4--(4)--4-------7-|--(7)--7------4-(4)-----4-----4------------|||-----------------------------|-------------------------------------------||
Tap to rate this tab
 
# A B C D E F G H I J K L M N O P Q R S T U V W X Y Z