Avenged Sevenfold - Buried Alive tab version 2

|-------8----10p8----8----------7---5----------||---/10---10------10---10-----8---8-----8/10---||----------------------------------------------||----------------------------------------------||----0------------------------7----------------||----------------------------------------------|
|----------------------------------------||-----5---6p5---5-------5----------------||---7---7-----7-------5---4-7\-4h5p4-----||------------------------------------5---||---5-------------3-2-0------------------||----------------------------------------|
|-------8----10p8----8----------7---5----------||---/10---10------10---10-----8---8-----8/10---||----------------------------------------------||----------------------------------------------||----0------------------------7----------------||----------------------------------------------|
|-------------------------------------------||-----5---6p5--------8-10---9h10p9p7h9-10---||---7---7-----7-9-10------------------------||-------------------------------------------||---5---------5-7-8---------7---------------||-------------------------------------------|
|---------------------------------------------------------||---8/10---8h10-----------------8/10---8h10---------------||-----------------7p5-7p5---------------------5/7-5/7-5---||-------------------------7-5-----------------------------||---------------------------------------------------------||---------------------------------------------------------|
|-----------------------------------5-----------------||---8/10---8h10-----------------7h8-5---5-----5-------||-----------------7p5-7p5-----------5-----5-----5-----||-------------------------7-5---------------5-----5---||-----------------------------------------------------||-----------------------------------------------------|
|---------------------------------------------------------||---8/10---8h10-----------------8/10---8h10---------------||-----------------7p5-7p5---------------------5/7-5/7-5---||-------------------------7-5-----------------------------||---------------------------------------------------------||---------------------------------------------------------|
|---------------------------------------------------------||---------------------------------------------------------||---5---4---9-9-------------4/5---4---9-9-----h21*--------||---------------7-/10h19*-----------------7--------h19*---||---------------------------------------------------------||---------------------------------------------------------|
Tap to rate this tab
 
# A B C D E F G H I J K L M N O P Q R S T U V W X Y Z