Avenged Sevenfold – Blinded In Chains tab ver. 2

         Avenged Sevenfold - Blinded in Chains
         =====================================
                       Rhythmpart


Tempo=192

Tuning: Drop D(DAdGBe;low to high)

Intro:(4x)

 P.M.-------------------------------------|

||-------------------------------------------||||-------------------------------------------||||-------------------------------------------||||-------------------------------------------||||-------------------------------------------||||-0-0-0-0-0-0-0-x-0-0-0-0-0-0-0-x-0-0-0-0-x-||
=========================================================
|------------------------------------------------||------------------------------------------------||------------------------------------------------||------------------------------------------------||-0--0--0--0--0--0--0--0--8--8--8--8--8--8--8--8-||-0--0--0--0--0--0--0--0--8--8--8--8--8--8--8--8-|
|------------------------------------------------||------------------------------------------------||------------------------------------------------||-8--8--8--8--7--7--7--7--5--5--5--5--5--5--5--5-||-5--5--5--5--3--3--3--3--3--3--3--3--3--3--3--3-||-5--5--5--5--3--3--3--3--2--2--2--2--2--2--2--2-|
|---------------------------------------------------------||---------------------------------------------------------||---------------------------------------------------------||---------------------------------------------------------||-0-0--0-0-0--0-0-0--0-0-0--0-8-8--8-8-8--8-8-8--8-8-8--8-||-0-0--0-0-0--0-0-0--0-0-0--0-8-8--8-8-8--8-8-8--8-8-8--8-|
|---------------------------------------------------------||---------------------------------------------------------||---------------------------------------------------------||-8-8-8-8-8-8-8--7-7-7-7-7-7-7--5-5--5-5-5--5-5----5------||-5-5-5-5-5-5-5--3-3-3-3-3-3-3--3-3--3-3-3--3-3----3------||-5-5-5-5-5-5-5--3-3-3-3-3-3-3--2-2--2-2-2--2-2----2------|
Rhy.Fig.1 End. P.M.-------------------------------------------------------------|
||----------------------------------------------------------------||||----------------------------------------------------------------||||----------------------------------------------------------------||||----------------------------------------------------------------||||-0-0-x-0-0-0-x-0-0-0-x-0-6-6-6-6-0-0-x-0-0-0-x-0-0-0-x-0-4-4-4-4||||-0-0-x-0-0-0-x-0-0-0-x-0-6-6-6-6-0-0-x-0-0-0-x-0-0-0-x-0-4-4-4-4||
|----------------------------------------------------------------||----------------------------------------------------------------||----------------------------------------------------------------||----------------------------------------------------------------||-0-0-x-0-0-0-x-0-0-0-x-0-6-6-6-6-0-0-x-0-0-0-x-0-0-x------------||-0-0-x-0-0-0-x-0-0-0-x-0-6-6-6-6-0-0-x-0-0-0-x-0-0-x------------|
Solo: -----
||----------------------------------------------------------|||----------------------------------------------------------|||----------------------------------------------------------|||----------------------------------------------------------|||-5-0--0-5-0--0-5-0--0-8-8-8-8-5-0--0-5-0--0-5-1--1-8-4--4-|||-5-0--0-5-0--0-5-0--0-8-8-8-8-5-0--0-5-0--0-5-1--1-8-4--4-|
P.M.-------------------|
|-----------------------------------------------------------------------|||-----------------------------------------------------------------------|||-----------------------------------------------------------------------|||--------------------------------------------------------------------4--|||-5-0--0-5-0--0-5-0--0-8-8-8-8-5-0--0-5-0--0-------------------------4--|||-5-0--0-5-0--0-5-0--0-8-8-8-8-5-0--0-5-0--0-5-5-5-5-1-1-1-1-8-8-8-8-4--||
Verse: ------ - Rhy.Fig.1 P.M.-------------------------------------------------------------|
|--------------------------------------------------------------------||--------------------------------------------------------------------||--------------------------------------------------------------------||--------------------------------------------------------------------||-0-0-x-0-0-0-x-0-0-0-x-0-6-6-6-6-0-0-x-0-0-0-x-0-0-0-x-0------------||-0-0-x-0-0-0-x-0-0-0-x-0-6-6-6-6-0-0-x-0-0-0-x-0-0-0-x-0-5-5-5-1-1-1|
- Rhy.Fig.1 P.M.--------------------------------------------------------------------|
|----------------------------------------------------------------------------|||----------------------------------------------------------------------------|||----------------------------------------------------------------------------|||-------------------------------------------------------------------------4--|||-0-0-x-0-0-0-x-0-0-0-x-0-6-6-6-6-0-0-x-0-0-0-x-0-------------------------4--|||-0-0-x-0-0-0-x-0-0-0-x-0-6-6-6-6-0-0-x-0-0-0-x-0-5-5-5-5-1-1-1-1-8-8-8-8-4--||
========================================================= Chorus: -------
||---------------------------------------------------------|||---------------------------------------------------------|||-----------------------------3---3--3-3-3-5--5-5--5-5-5--|||-----------------------------3---3--3-3-3-5--5-5--5-5-5--|||-----------------------------1---1--1-1-1-3--3-3--3-3-3--|||-0-6-5-0-3-5--0--6-5-0-3-5-x-----------------------------|
|----------------------------------------------------------|||----------------------------------------------------------|||-----------------------------3---3--3-3-3-5--5-5--5-5-x---|||-----------------------------3---3--3-3-3-5--5-5--5-5-x-0-|||-----------------------------1---1--1-1-1-3--3-3--3-3-x-0-|||-0-6-5-0-3-5--0--6-5-0-3-5-x----------------------------0-||
Interlude ---------
Rhy.Fig.4 end||--------------------------------------------------|||--------------------------------------------------|||-7--7--7-7-7-------------------------3----3----3--|||-7--7--7-7-7--5--5--5-5-5-5-3--3-3-x-3----3----3--|||-5--5--5-5-5--3--3--3-3-3-3-3--3-3-x-1----1----1--|||--------------2--2--2-2-2-2-3--3-3-x--------------|
|--------------------------------------------------|||--------------------------------------------------|||-7--7--7-7-7----------------2----2----3-----------|||-7--7--7-7-7--5--5--5-5-5-5-2-x--2-x--3-----------|||-5--5--5-5-5--3--3--3-3-3-3-0-x--0-x--1-----------|||--------------2--2--2-2-2-2---x----x--------------||
========================================================= - Verse ----- Pre-Chorus(2x): -----------
||-----------------------------------------------------------------||||-----------------------------------------------------------------||||-----------------------------------------------------------------||||-0-0-x-0-0-0-x-0-0-0-x-0-6-6-6-6-0-0-x-0-0-0-x-0-0-0-x-0-4-4-4-4-||||-0-0-x-0-0-0-x-0-0-0-x-0-6-6-6-6-0-0-x-0-0-0-x-0-0-0-x-0-4-4-4-4-||||-0-0-x-0-0-0-x-0-0-0-x-0-6-6-6-6-0-0-x-0-0-0-x-0-0-0-x-0-4-4-4-4-||
========================================================= - Chorus ------ Bridge1: ------- P.M.------|
||----------------------------------------------------------|||----------------------------------------------------------|||----------------------------------------------------------|||-0--0-3--3-3-5--5-5-8--8-8--7--------------7-7-7-7-7-7-7--|||-0--0-3--3-3-5--5-5-8--8-8--7--7-7-7-7-7-7-7-7-7-7-7-7-7--|||-0--0-3--3-3-5--5-5-8--8-8--7--7-7-7-7-7-7-7-7-7-7-7-7-7--|
P.M.--------------|
|-----------------------------------------------------------|||-----------------------------------------------------------|||-----------------------------------------------------------|||-0--0-3--3-3-5--5-5-8--8-8--7----------------------7-7-7-0-|||-0--0-3--3-3-5--5-5-8--8-8--7--7-7-7-7-7-7-7-7-7-7-7-7-7-0-|||-0--0-3--3-3-5--5-5-8--8-8--7--7-7-7-7-7-7-7-7-7-7-7-7-7-0-||
=========================================================
|-----------------------------------------------------||-----------------------------------------------------||-7--7--7-7-7--3--3--3-3-3--2--2--2-2-2--2--2--2-2-2--||-7--7--7-7-7--3--3--3-3-3--2--2--2-2-2--2--2--2-2-2--||-5--5--5-5-5--1--1--1-1-1--0--0--0-0-0--4--4--4-4-4--||-----------------------------------------------------|
|-----------------------------------------------------||-----------------------------------------------------||-7--7--7-7-7--3--3--3-3-3--2--2--2-2-2--2--2--2-2-2--||-7--7--7-7-7--3--3--3-3-3--2--2--2-2-2--2--2--2-2-2--||-5--5--5-5-5--1--1--1-1-1--0--0--0-0-0--4--4--4-4-4--||-----------------------------------------------------|
Interlude(2x): --------- - Rhy.Fig.4
|-----------------------------------------------------|||-----------------------------------------------------|||-7--7--7-7-7----------------2--2-2-x-3-----3---3/5---|||-7--7--7-7-7--5--5--5-5-5-5-2--2-2-x-3-----x---x-x---|||-5--5--5-5-5--3--3--3-3-3-3-0--0-0-x-1---0-1-0-1/3---|||--------------2--2--2-2-2-2--------------------------||
========================================================= P.M.-------------------------------------|
|-------------------------------------------|------------------||-------------------------------------------|------------------||-------------------------------------------|------------------||-------------------------------------------|-x----------------||-------------------------------------------|-x----------------||-0-0-0-0-0-0-0-x-0-0-0-0-0-0-0-x-0-0-0-0-x-|-x----------------|
Bridge2(2x): ------- P.M.--------| P.M.--------| P.M.-|
||-------------------------------------------|||-------------------------------------------|||-------------------------------------------|||-------------0---------------0---------0---|||-------------0---------------0---------0---|||-0-0-0-0-0-0-0-x-0-0-0-0-0-0-0-x-0-0-0-0-x-|
P.M.--------| P.M.--------| P.M.-|
|-------------------------------------------||-------------------------------------------||-------------------------------------------||-------------8---------------8---------8---||-------------8---------------8---------8---||-8-8-8-8-8-8-8-x-8-8-8-8-8-8-8-x-8-8-8-8-x-|
P.M.--------| P.M.-------| P.M.-|
|----------------------------------------||----------------------------------------||----------------------------------------||-------------8--------------7--------3--||-------------5--------------3--------3--||-5-5-5-5-5-5-5--5-5-0-3-3-3-3--3-3-3-3--|
P.M.--------| P.M.-------| P.M.-|
|----------------------------------------|||----------------------------------------|||----------------------------------------|||-------------2--------------2--------2--|||-------------3--------------3--------3--|||-2-2-2-2-2-2-2--2-2-2-2-2-2-2--2-2-2-2--||
Solo: ----
||---------------------------------------|||---------------------------------------|||-------------------3--------3----3--3--|||-0--------0--------3--------3----3--3--|||-0--------0--------1--------1----1--1--|||-0--------0----------------------------|
|------------------------------------------|||------------------------------------------|||------------------------------------------|||-8------8-8-7------7-7-5----5----5--------|||-5------5-5-3------3-3-3----3----3--------|||-5------5-5-3------3-3-2----2----2--------||
|-------------------------------------------------||-------------------------------------------------||-------------------------------------------------||-0--0--0--0--3--3--3--3--8--8--8--8--8--8--8--8--||-0--0--0--0--3--3--3--3--8--8--8--8--8--8--8--8--||-0--0--0--0--3--3--3--3--8--8--8--8--8--8--8--8--|
P.M.| P.M.--| P.M.--| P.M.--| P.M.
|---------------------------------||---------------------------------||---------------------------------||-----8-------8-------7-------7---||---5---5---5---5---3---3---3---3-||-5-------5-------3-------3-------|
|-----------------------------||-----------------------------||-----------------------------||-5-5--5-5-5--5-5-5--5-5-5--5-||-3-3--3-3-3--3-3-3--3-3-3--3-||-2-2--2-2-2--2-2-2--2-2-2--2-|
|---------------------------------------------------------||---------------------------------------------------------||---------------------------------------------------------||---------------------------------------------------------||-0-0--0-0-0--0-0-0--0-0-0--0-8-8--8-8-8--8-8-8--8-8-8--8-||-0-0--0-0-0--0-0-0--0-0-0--0-8-8--8-8-8--8-8-8--8-8-8--8-|
P.M.| P.M.--| P.M.--| P.M.--| P.M.
|---------------------------------||---------------------------------||---------------------------------||-----8-------8-------7-------7---||---5---5---5---5---3---3---3---3-||-5-------5-------3-------3-------|
|-----------------------------||-----------------------------||-----------------------------||-5-5--5-5-5--5-5-5--5-5-5--5-||-3-3--3-3-3--3-3-3--3-3-3--3-||-2-2--2-2-2--2-2-2--2-2-2--2-|
Rhy.Fig.5 (2x)||---------------------------------------------------|||---------------------------------------------------|||---------------------------------------------------|||-0--0--0--0--0--0--0--0--3--3--3--3--7--7--7-7--7--|||-0--0--0--0--0--0--0--0--3--3--3--3--5--5--5-5--5--|||-0--0--0--0--0--0--0--0--3--3--3--3--4--4--4-4--4--|
|-------------------------------------------------||-------------------------------------------------||-------------------------------------------------||-8--8--8--8--8--8--8--8--8--8--8--8--8--8--8--8--||-5--5--5--5--5--5--5--5--8--8--8--8--8--8--8--8--||-5--5--5--5--5--5--5--5--8--8--8--8--8--8--8--8--|
|-------------------------------------------------|||-6--6--6--6--6--6--6--6--------------------------|||-6--6--6--6--6--6--6--6--------------6--6--6--6--|||-8--8--8--8--8--8--8--8--3--3--3--3--5--5--5--5--|||-8--8--8--8--8--8--8--8--3--3--3--3--7--7--7--7--|||-8--8--8--8--8--8--8--8--3--3--3--3--7--7--7--7--||
Interlude: ----------
|-------------------------------------------------------------------------|||-------------------------------------------------------------------------|||-----------------3--3-3--3-3-3-5--5-5--5-5-5--3--3--3-3-3-2--2-2--2-2-2--|||-0-x-------------3--3-3--3-3-3-5--5-5--5-5-5--3--3--3-3-3-2--2-2--2-2-2--|||-0-x-------------1--1-1--1-1-1-3--3-3--3-3-3--1--1--1-1-1-0--0-0--0-0-0--|||-0-x---------------------------------------------------------------------||
========================================================= - Chorus ------ - Bridge ------ Outro: -----
||-----------------------------------------------------------------------------|||---------------------------------------------------------8-------------------|||-------------------------------------------------6---6-9---9-6-9-6-7----x----|||-3-5-3-2-3-2-----3-5-3-2-3-2-----3-2-----3-2-------7-------------------------|||-------------5-4-------------5-4-----5-4-----5-4-----------------------------|||-----------------------------------------------------------------------------|
fade out...|------------------------------------------------------------------------|||------------------------------------------------------------------------|||------------------------------------------------------------------------|||-0----------------------------------------------------------------------|||-0----------------------------------------------------------------------|||-0----------------------------------------------------------------------||
========================== x - Rest/Mute String P.M. - Palm Muting || - Double barline
Please rate this tab:
x1.0