Avenged Sevenfold - Trashed And Scattered tab

TRASHED & SCATTERED
As recorded by Avenged Sevenfold
(From the 2005 Album CITY OF EVIL)

Gtr I (D A D G B E)
Gtr II (D A D G B E) 
Gtr III (D A D G B E) 
Gtr IV (E A D G B E)
 Intro
  Q=177
  D5                 Bb5
 4/4
  Gtr I
|------------------|---------------------||-10-8-6---8-6-----|-11-8----------------||--------9-----9-7-|------9---------9----||------------------|--------11-7-11---11-||------------------|---------------------||------------------|---------------------|
|
| Gtr II|------------------|---------------------||------------------|---------------------||------------------|---------------------||------------------|---------------------||------------------|---------------------||------------------|---------------------|
|
| Gtr III|------------------|---------------------||------------------|---------------------||--7---------------|--3------------------||--7---------------|--3------------------||--5---------------|--1------------------||--0---------------|---------------------|
F5 D5 C#5 E5 D5|------------------------------------------|--------------------------||-18-17-15----15\--------------------------|-------------------15\----||----------18------14-12-------------------|----------12-14-15--------||------------------------15-14-12-12-------|-12-14-15-----------------||------------------------------------15-13-|--------------------------||------------------------------------------|--------------------------|
|
|-17-15------------------------------------|-13-12----12-------13\----||-------18-17-18\--15-13-------------------|-------15----15-14--------||------------------------15-14-12----------|--------------------------||---------------------------------15-14-12-|--------------------------||------------------------------------------|--------------------------||------------------------------------------|--------------------------|
|
|------------------------------------------|--------------------------||------------------------------------------|--------------------------||-------------------7----------------------|--6--------9--------7-----||--3----------------7----------------------|--6--------9--------7-----||--3----------------5----------------------|--4--------7--------5-----||--3---------------------------------------|--------------------------|
Verse $ D5 D5 Gtr I ~||--------------------------|--------------------------|||o-------------------------|--------------------------|||--7-----------------------|-7-----9-----10------7----|||--------------------------|--------------------------|||o-------------------------|--------------------------|||--------------------------|--------------------------|
|
| Gtr III| PM----| PM| PM----| PM|||--------------------------|--------------------------|||o-------------------------|--------------------------|||--7---------7-----7-(7)-7-|-7---------7------7-(7)-7-|||--7---------7-----7-(7)-7-|-7---------7------7-(7)-7-|||o-5-5-5-5-5-5-5-5-5-(5)-5-|-5-5-5-5-5-5--5-5-5-(5)-5-|||--------------------------|--------------------------|
C5 C5 ~ ~|---------------------------|-------------------------||---------------------------|-------------------------||-9-----------------(9)-9p7-|-5-----------------------||---------------------------|-------------------------||---------------------------|-------------------------||---------------------------|-------------------------|
|
| PM----| PM| PM----| PM||---------------------------|-------------------------||---------------------------|-------------------------||-5---------5-----5-(5)-5---|-5---------5-----5-(5)-5-||-5---------5-----5-(5)-5---|-5---------5-----5-(5)-5-||-3-3-3-3-3-3-3-3-3-(3)-3---|-3-3-3-3-3-3-3-3-3-(3)-3-||---------------------------|-------------------------|
Bb5 Bb5 ~|-------------------------|--------------------------||-------------------------|--------------------------||-------------------------|--------------7------9----||-8-----------------------|-8-----10-----------------||-------------------------|--------------------------||-------------------------|--------------------------|
|
| PM----| PM| PM-----| PM||-------------------------|--------------------------||-------------------------|--------------------------||-3---------3-----3-(3)-3-|-3----------3-----3-(3)-3-||-3---------3-----3-(3)-3-|-3----------3-----3-(3)-3-||-1-1-1-1-1-1-1-1-1-(1)-1-|-1-1-1--1-1-1-1-1-1-(1)-1-||-------------------------|--------------------------|
1. F5 A5 A/C# ~~~~~~~~~~~~~~~~~~~~~~~~~~~~~~~~~|-------------------------|------------|||-------------------------|-----------o|||-------------------------|-6----9-----|||-------------------------|------------|||-8-----------------------|-----------o|||-------------------------|------------||
|
| PM----| PM||-------------------------|------------|||-------------------------|-----------o|||-------------------------|------6-----|||-3---------3-----3-(3)-3-|-7----7-----|||-3---------3-----3-(3)-3-|-7----4----o|||-3-3-3-3-3-3-3-3-3-(3)-3-|-7----------||
2. F5 A5 A/C# ~~~~~~~~~~~~~~~~~~~~~~~~~~~~~~|---------------------------|-----------||---------------------------|-----------||-------------/10-----------|-9---------||-7-------------------------|-----------||---------------------------|-----------||---------------------------|-----------|
|
| PM----| PM||---------------------------|-----------||---------------------------|-----------||---------------------------|------6----||-3---------3-------3-(3)-3-|-7----7----||-3---------3-------3-(3)-3-|-7----4----||-3-3-3-3-3-3---3-3-3-(3)-3-|-7---------|
D5 D5 ~||--------------------------|--------------------------|||o-------------------------|--------------------------|||--7-----------------------|-7-----9-----10------7----|||--------------------------|--------------------------|||o-------------------------|--------------------------|||--------------------------|--------------------------|
|
| Gtr II| ~||--------------------------|--------------------------|||o-6-----------------------|-6-----8-----10------6----|||--------------------------|--------------------------|||--------------------------|--------------------------|||o-------------------------|--------------------------|||--------------------------|--------------------------|
|
| Gtr III| PM----| PM| PM----| PM|||--------------------------|--------------------------|||o-------------------------|--------------------------|||--7---------7-----7-(7)-7-|-7---------7------7-(7)-7-|||--7---------7-----7-(7)-7-|-7---------7------7-(7)-7-|||o-5-5-5-5-5-5-5-5-5-(5)-5-|-5-5-5-5-5-5--5-5-5-(5)-5-|||--------------------------|--------------------------|
C5 C5 ~ ~|---------------------------|-------------------------||---------------------------|-------------------------||-9-----------------(9)-9p7-|-5-----------------------||---------------------------|-------------------------||---------------------------|-------------------------||---------------------------|-------------------------|
|
| ~ ~|---------------------------|-------------------------||-8-----------------(8)-8p6-|-5-----------------------||---------------------------|-------------------------||---------------------------|-------------------------||---------------------------|-------------------------||---------------------------|-------------------------|
|
| PM----| PM| PM----| PM||---------------------------|-------------------------||---------------------------|-------------------------||-5---------5-----5-(5)-5---|-5---------5-----5-(5)-5-||-5---------5-----5-(5)-5---|-5---------5-----5-(5)-5-||-3-3-3-3-3-3-3-3-3-(3)-3---|-3-3-3-3-3-3-3-3-3-(3)-3-||---------------------------|-------------------------|
Bb5 Bb5 ~|-------------------------|--------------------------||-------------------------|--------------------------||-------------------------|--------------7------9----||-8-----------------------|-8-----10-----------------||-------------------------|--------------------------||-------------------------|--------------------------|
|
| ~|-------------------------|--------------------------||-------------------------|--------------6------8----||-7-----------------------|-7------9-----------------||-------------------------|--------------------------||-------------------------|--------------------------||-------------------------|--------------------------|
|
| PM----| PM| PM-----| PM||-------------------------|--------------------------||-------------------------|--------------------------||-3---------3-----3-(3)-3-|-3----------3-----3-(3)-3-||-3---------3-----3-(3)-3-|-3----------3-----3-(3)-3-||-1-1-1-1-1-1-1-1-1-(1)-1-|-1-1-1--1-1-1-1-1-1-(1)-1-||-------------------------|--------------------------|
1. F5 A5 A/C# ~~~~~~~~~~~~~~~~~~~~~~~~~~~~~~~~~|-------------------------|------------|||-------------------------|-----------o|||-------------------------|------9-----|||-------------------------|-7----------|||-8-----------------------|-----------o|||-------------------------|------------||
|
| ~~~~~~~~~~~~~~~~~~~~~~~~~~~~~~~~~|-------------------------|------------|||-------------------------|-----------o|||-------------------------|-6----6-----|||-7-----------------------|------------|||-------------------------|-----------o|||-------------------------|------------||
|
| PM----| PM||-------------------------|------------|||-------------------------|-----------o|||-------------------------|------6-----|||-3---------3-----3-(3)-3-|-7----7-----|||-3---------3-----3-(3)-3-|-7----4----o|||-3-3-3-3-3-3-3-3-3-(3)-3-|-7----------||
2. To Coda F5 A5 A/C# ~~~~~~~~~~~~~~~~~~~~~~~~~~~~~~|---------------------------|-----------||---------------------------|-----------||-------------/10-----------|-9---------||-7-------------------------|-----------||---------------------------|-----------||---------------------------|-----------|
|
| ~~~~~~~~~~~~~~~~~~~~~~~~~~~~~~|---------------------------|-----------||---------------------------|-----------||-5-------------5-----------|-6---------||---------------------------|-----------||---------------------------|-----------||---------------------------|-----------|
|
| PM----| PM||---------------------------|-----------||---------------------------|-----------||---------------------------|------6----||-3---------3-------3-(3)-3-|-7----7----||-3---------3-------3-(3)-3-|-7----4----||-3-3-3-3-3-3---3-3-3-(3)-3-|-7---------|
Bridge D5 G5G#G5D5F5D5|----------------|------------|------------|--------||----------------|------------|------------|--------||----------------|------------|------------|--------||----------------|------------|------------|--------||--------------5-|-(5)--------|-(5)--------|-(5)----||----------------|------------|------------|--------|
|
| Gtr II|----------------|------------|------------|--------||----------------|------------|------------|--------||----------------|------------|------------|--------||----------------|------------|------------|--------||-0--5S6-5-0-3-0-|------------|------------|--------||-0--5S6-5-0-3-0-|------------|------------|--------|
N.C.|-------------------------|---------------------------|---------|-----||-------------------------|---------------------------|---------|-----||-6pb7r=(6)--(6)pb7r=(6)--|-(6)pb7r=(6)--(6)pb7r=(6)--|---------|-----||-------------------------|---------------------------|---------|-----||-------------------------|---------------------------|---------|-----||-------------------------|---------------------------|---------|-----|
Chorus D5 F5||--------13----12----------|---------17----15--13-12----|||o-15-------------15-13-13-|-(13)-13----13-----------13-|||-----14----14-------------|----------------------------|||--------------------------|----------------------------|||o-------------------------|----------------------------|||--------------------------|----------------------------|
|
| Gtr II| PM||--------------------------|----------------------------|||o-------------------------|----------------------------|||---7-----7-----7--7-------|----------------------------|||---7-----7-----7--7-----3-|--(3)--3--3----(3)--3--3--3-|||o--5-----5-----5--5-----3-|--(3)--3--3----(3)--3--3--3-|||---------------------3--3-|--(3)--3--3----(3)--3--3--3-|
Bb5 F5 C5|----------13------------|---------------------------||-15----------15---------|---------------------------||----14-----------14-----|-----12----------------15--||-------15-----------14--|-14-----14-12----14-17-----||------------------------|--------------16-----------||------------------------|---------------------------|
|
|------------------------|---------------------------||------------------------|---------------------------||--3-----x------------5--|-(5)--5--5-----------------||--3-----x--3-(3)--x--5--|-(5)--5--5-----------------||--1-----x--3-(3)--x--3--|-(3)--3--3-----------------||-----------3-(3)--x-----|---------------------------|
D5 F5 ~~~~~~~~~|-------------------12-13-|-(13)----------15-----17----||-15----------15----------|------13----13-----13----13-||----14----14----14-------|----------------------------||-------15----------------|---------15-----------------||-------------------------|----------------------------||-------------------------|----------------------------|
|
| PM PM||-------------------------|----------------------------||-------------------------|----------------------------||--7-----7-----7--7-------|----------------------------||--7-----7-----7--7-----3-|--(3)--3--3----(3)--3-------||--5-----5-----5--5-----3-|--(3)--3--3----(3)--3--3--3-||--------------------3--3-|--(3)--3--3----(3)--3--3--3-|
C5 Bb5 ~~~~~~~|---------------------------------------|---------------------------|||-17-(17)b18r(17)----17pb18r17-(17)-/18-|-(18)-17----15-(15)-------o|||-----------------17--------------------|---------17----------------|||---------------------------------------|---------------------------|||---------------------------------------|--------------------------o|||---------------------------------------|---------------------------||
|
|---------------------------------------|---------------------------|||---------------------------------------|--------------------------o|||--5-----------5------5------5---5----3-|--(3)--3--3----------------|||--5-----------5------5------5---5----3-|--(3)--3--3----------------|||--3-----------3------3------3---3----1-|--(1)--1--1-/8--(8)-7-----o|||---------------------------------------|----------------------10---||
Breakdown D5|-------------|---------|---------|-------||-(15)--------|---------|---------|-------||-------------|---------|---------|-------||-------------|---------|---------|-------||-------------|---------|---------|-x\----||-------------|---------|---------|-x\----|
|
|-------------|---------|---------|-------||-------------|---------|---------|-------||-------------|---------|---------|-------||---0---------|---------|---------|-------||---0---------|---------|---------|-------||---0---------|---------|---------|-------|
D5 C#5 C5 Bb5 ~~~~~~~~~~~~~~~~~~~~~~~~~~~~~~~|------------------|------------------||-/15---14-(14)----|-/13--------------||------------------|-------15-(15)----||------------------|------------------||------------------|------------------||------------------|------------------|
|
|------------------|------------------||------------------|------------------||---7----6--(6)----|---5----3--(3)----||---7----6--(6)----|---5----3--(3)----||---5----4--(4)----|---3----1--(1)----||------------------|------------------|
A5 G5 F5 D5 ~~~~~|--------------------------|---------------------||--------------------------|---------------------||-/14---12-(12)------------|----------12b13------||---------------15-(15)-12-|-(12)----------------||--------------------------|---------------------||--------------------------|---------------------|
|
|--------------------------|---------------------||--------------------------|---------------------||--------------------------|---------------------||---7----5--(5)--3--(3)--0-|--(0)------0----(0)--||---7----5--(5)--3--(3)--0-|--(0)------0----(0)--||---7----5--(5)--3--(3)--0-|--(0)------0----(0)--|
D5 C#5 C5 Bb5 ~~~~~~~~~~~~~~~~~~~~~~~~~~~~~~~|------------------|------------------||-/15---14-(14)----|-/13--------------||------------------|-------15-(15)----||------------------|------------------||------------------|------------------||------------------|------------------|
|
|------------------|------------------||------------------|------------------||---7----6--(6)----|---5----3--(3)----||---7----6--(6)----|---5----3--(3)----||---5----4--(4)----|---3----1--(1)----||------------------|------------------|
D.S. al Coda A5 G5 F5 D5|--------------------------|------------------------16b17-(16)\--||--------------------------|---------------------15--------------||-/14---12-(12)------------|---------------12-14-----------------||---------------15-(15)-12-|-(12)-12-14-15-----------------------||--------------------------|-------------------------------------||--------------------------|-------------------------------------|
|
|--------------------------|-------------------------------------||--------------------------|-------------------------------------||--------------------------|-------------------------------------||---7----5--(5)--3--(3)--0-|--(0)--------------------------------||---7----5--(5)--3--(3)--0-|--(0)--------------------------------||---7----5--(5)--3--(3)--0-|--(0)--------------------------------|
Interlude & D5 A5 C5 G5||------------------|---------------|---------------|-----------------||||o-----------------|---------------|---------------|----------------o||||--7---11-(11)--7--|-6---9-(9)--6--|-5---9-(9)--5--|-----------------||||------------------|---------------|---------------|-5---5-(5)--5----||||o-5----9--(9)--5--|-4---7-(7)--4--|-3---7-(7)--3--|----------------o||||------------------|---------------|---------------|-5---5-(5)--5----||
|
||------------------|---------------|---------------|-----------------||||o-----------------|---------------|---------------|----------------o||||--7---------------|---------------|-5-------------|-----------------||||--7---------------|-7-------------|-5-------------|-5---------------||||o-5---------------|-7-------------|-3-------------|-5--------------o||||------------------|-7-------------|---------------|-5---------------||
F5 F5 Gtrs I, II PM----| PM| PM----| PM|||--------------------------|-------------------------|||o-------------------------|-------------------------|||--------------------------|-------------------------|||--3---------3-----3-(3)-3-|-3---------3-----3-(3)-3-|||o-3---------3-----3-(3)-3-|-3---------3-----3-(3)-3-|||--3-3-3-3-3-3-3-3-3-(3)-3-|-3-3-3-3-3-3-3-3-3-(3)-3-|
C5 C5 PM----| PM| PM----| PM||-------------------------|-------------------------||-------------------------|-------------------------||-5---------5-----5-(5)-5-|-5---------5-----5-(5)-5-||-5---------5-----5-(5)-5-|-5---------5-----5-(5)-5-||-3-3-3-3-3-3-3-3-3-(3)-3-|-3-3-3-3-3-3-3-3-3-(3)-3-||-------------------------|-------------------------|
Bb5 Bb5 PM----| PM| PM----| PM||-------------------------|-------------------------||-------------------------|-------------------------||-3---------3-----3-(3)-3-|-3---------3-----3-(3)-3-||-3---------3-----3-(3)-3-|-3---------3-----3-(3)-3-||-1-1-1-1-1-1-1-1-1-(1)-1-|-1-1-1-1-1-1-1-1-1-(1)-1-||-------------------------|-------------------------|
1. A5 A5 PM----| PM| PM----| PM||-------------------------|--------------------------|||-------------------------|-------------------------o|||-2---------2-----2-(2)-2-|-2---------2-----2-(2)-2--|||-2---------2-----2-(2)-2-|-2---------2-----2-(2)-2--|||-0-0-0-0-0-0-0-0-0-(0)-0-|-0-0-0-0-0-0-0-0-0-(0)-0-o|||-------------------------|--------------------------||
2. A5 A5 PM----| PM| PM----| PM||-------------------------|-------------------------||-------------------------|-------------------------||-2---------2-----2-(2)-2-|-2---------2-----2-(2)-2-||-2---------2-----2-(2)-2-|-2---------2-----2-(2)-2-||-0-0-0-0-0-0-0-0-0-(0)-0-|-0-0-0-0-0-0-0-0-0-(0)-0-||-------------------------|-------------------------|
Bridge D5 D5 Gtr I|----------------|----------------||----------------|----------------||----------------|----------------||----------------|----------------||----------------|----------------||----------------|----------------|
|
| Gtr II| PM------| PM------||----------------|----------------||----------------|----------------||----------------|----------------||----------------|----------------||-0-0-0-0-0------|-0-0-0-0-0------||-0-0-0-0-0------|-0-0-0-0-0------|
D5 D5 D PM--------||-----------------------|------------------------||-----------------------|------------------------||-----------------------|------------------------||-----------------------|------------------------||-----------------------|------------5b6r=(5)----||------------0-0-0-0-0--|------------0----(0)----|
|
| PM------| PM------||-----------------------|------------------------||-----------------------|------------------------||-----------------------|------------------------||-----------------------|------------------------||-0-0-0-0-0-------------|-0-0-0-0-0--5b6r=(5)----||-0-0-0-0-0-------------|-0-0-0-0-0--0----(0)----|
N.C. Gtr IV|-12--------|-(12)--------|-(12)s=14s=15s=14s=|=12s==14s=15s=14--||-----------|-------------|-------------------|------------------||-----------|-------------|-------------------|------------------||-----------|-------------|-------------------|------------------||-----------|-------------|-------------------|------------------||-----------|-------------|-------------------|------------------|
|
|-----------|-------------|-------------------|------------------||-----------|-------------|-------------------|------------------||-----------|-------------|-------------------|------------------||-----------|-------------|-------------------|------------------||--5--------|--(5)--------|--(5)--------------|-(5)--------------||-----------|-------------|-------------------|------------------|
N.C.|-14pb15r(14)-(14)b15r(14)-(14)b15r(14)-15---||--------------------------------------------||--------------------------------------------||--------------------------------------------||--------------------------------------------||--------------------------------------------|
|
|--------------------------------------------||--------------------------------------------||--6pb7r=======(6)----------(6)pb7r=====(6)--||--------------------------------------------||--------------------------------------------||--------------------------------------------|
|-15------------------------|---------|-----||---------------------------|---------|-----||---------------------------|---------|-----||---------------------------|---------|-----||---------------------------|---------|-----||---------------------------|---------|-----|
|
|---------------------------|---------|-----||---------------------------|---------|-----||-(6)pb7r=(6)--(6)pb7r=(6)--|---------|-----||---------------------------|---------|-----||---------------------------|---------|-----||---------------------------|---------|-----|
D5 G5G#G5 F5D5 F5G5 G#5 G5 D5 G5G#G5 F5D5 D5D5 F5 Gtrs I, II|----------------|--------------------|----------------|-----------------------||----------------|--------------------|----------------|-----------------------||----------------|--------------------|----------------|-------7---10-10-10-10-||-0--5S6-5---3-0-|-(0)-3S5---6---/5---|-0--5S6-5---3-0-|-(0)-0-7---10-10-10-10-||-0--5S6-5---3-0-|-(0)-3S5---6---/5---|-0--5S6-5---3-0-|-(0)-0-5----8--8--8--8-||-0--5S6-5-0-3-0-|-(0)-3S5-0-6-0-/5-0-|-0--5S6-5-0-3-0-|-(0)-0---0-------------|
D5 G5G#G5 F5D5 F5G5 G#5 G5 D5 G5G#5 F5D5 D5 F5|----------------|--------------------|----------------|-----------------------||----------------|--------------------|----------------|-----------------------||----------------|--------------------|----------------|-------7---10-10-10-10-||-0--5S6-5---3-0-|-(0)-3S5---6---/5---|-0--5S6-5---3-0-|-(0)-0-7---10-10-10-10-||-0--5S6-5---3-0-|-(0)-3S5---6---/5---|-0--5S6-5---3-0-|-(0)-0-5----8--8--8--8-||-0--5S6-5-0-3-0-|-(0)-3S5-0-6-0-/5-0-|-0--5S6-5-0-3-0-|-(0)-0---0-------------|
Breakdown D5 C#5 C5 Bb5 Gtr I ~~~~~~~~~~~~~~~~~~~~~~~~~~~~~~~|------------------|------------------||-/15---14-(14)----|-/13--------------||------------------|-------15-(15)----||------------------|------------------||------------------|------------------||------------------|------------------|
|
| Gtr II|------------------|------------------||------------------|------------------||---7----6--(6)----|---5----3--(3)----||---7----6--(6)----|---5----3--(3)----||---5----4--(4)----|---3----1--(1)----||------------------|------------------|
A5 G5 F5 D5 ~~~~~|--------------------------|---------------------||--------------------------|---------------------||-/14---12-(12)------------|----------12b13------||---------------15-(15)-12-|-(12)----------------||--------------------------|---------------------||--------------------------|---------------------|
|
|--------------------------|---------------------||--------------------------|---------------------||--------------------------|---------------------||---7----5--(5)--3--(3)--0-|--(0)------0----(0)--||---7----5--(5)--3--(3)--0-|--(0)------0----(0)--||---7----5--(5)--3--(3)--0-|--(0)------0----(0)--|
D5 C#5 C5 Bb5 ~~~~~~~~~~~~~~~~~~~~~~~~~~~~~~~|------------------|------------------||-/15---14-(14)----|-/13--------------||------------------|-------15-(15)----||------------------|------------------||------------------|------------------||------------------|------------------|
|
|------------------|------------------||------------------|------------------||---7----6--(6)----|---5----3--(3)----||---7----6--(6)----|---5----3--(3)----||---5----4--(4)----|---3----1--(1)----||------------------|------------------|
A5 G5 F5 D5|--------------------------|------------------------16b17-(16)\--||--------------------------|---------------------15--------------||-/14---12-(12)------------|---------------12-14-----------------||---------------15-(15)-12-|-(12)-12-14-15-----------------------||--------------------------|-------------------------------------||--------------------------|-------------------------------------|
|
|--------------------------|-------------------------------------||--------------------------|-------------------------------------||--------------------------|-------------------------------------||---7----5--(5)--3--(3)--0-|--(0)--------------------------------||---7----5--(5)--3--(3)--0-|--(0)--------------------------------||---7----5--(5)--3--(3)--0-|--(0)--------------------------------|
Chorus D5 D5 D5 D5 F5||--------13----12----------|---------17----15--13-12----|||o-15-------------15-13-13-|-(13)-13----13-----------13-|||-----14----14-------------|----------------------------|||--------------------------|----------------------------|||o-------------------------|----------------------------|||--------------------------|----------------------------|
|
| PM||--------------------------|----------------------------|||o-------------------------|----------------------------|||---7-----7-----7--7-------|----------------------------|||---7-----7-----7--7-----3-|--(3)--3--3----(3)--3--3--3-|||o--5-----5-----5--5-----3-|--(3)--3--3----(3)--3--3--3-|||---------------------3--3-|--(3)--3--3----(3)--3--3--3-|
Bb5 F5 C5|----------13------------|---------------------------||-15----------15---------|---------------------------||----14-----------14-----|-----12----------------15--||-------15-----------14--|-14-----14-12----14-17-----||------------------------|--------------16-----------||------------------------|---------------------------|
|
|------------------------|---------------------------||------------------------|---------------------------||--3-----x------------5--|-(5)--5--5-----------------||--3-----x--3-(3)--x--5--|-(5)--5--5-----------------||--1-----x--3-(3)--x--3--|-(3)--3--3-----------------||-----------3-(3)--x-----|---------------------------|
D5 F5 ~~~~~~~~~|-------------------12-13-|-(13)----------15-----17----||-15----------15----------|------13----13-----13----13-||----14----14----14-------|----------------------------||-------15----------------|---------15-----------------||-------------------------|----------------------------||-------------------------|----------------------------|
|
| PM PM||-------------------------|----------------------------||-------------------------|----------------------------||--7-----7-----7--7-------|----------------------------||--7-----7-----7--7-----3-|--(3)--3--3----(3)--3-------||--5-----5-----5--5-----3-|--(3)--3--3----(3)--3--3--3-||--------------------3--3-|--(3)--3--3----(3)--3--3--3-|
C5 Bb5 ~~~~~~~|---------------------------------------|---------------------------|||-17-(17)b18r(17)----17pb18r17-(17)-/18-|-(18)-17----15-(15)-------o|||-----------------17--------------------|---------17----------------|||---------------------------------------|---------------------------|||---------------------------------------|--------------------------o|||---------------------------------------|---------------------------||
|
|---------------------------------------|---------------------------|||---------------------------------------|--------------------------o|||--5-----------5------5------5---5----3-|--(3)--3--3----------------|||--5-----------5------5------5---5----3-|--(3)--3--3----------------|||--3-----------3------3------3---3----1-|--(1)--1--1-/8--(8)-7-----o|||---------------------------------------|----------------------10---||
Bridge D5 A5 PM----| PM----| PM| PM----| PM----| PM|||----------------------------|---------------------------|||o---------------------------|---------------------------|||--7---------7---------7-----|---------------------------|||--7---------7---------7-----|-7---------7---------7-----|||o-5-5-5-5-5-5-5-5-5-5-5-5-5-|-7---------7---------7-----|||----------------------------|-7-7-7-7-7-7-7-7-7-7-7-7-7-|
|
| PM----| PM----| PM| PM----| PM----| PM|||----------------------------|---------------------------|||o---------------------------|---------------------------|||--7---------7---------7-----|---------------------------|||--7---------7---------7-----|-7---------7---------7-----|||o-5-5-5-5-5-5-5-5-5-5-5-5-5-|-7---------7---------7-----|||----------------------------|-7-7-7-7-7-7-7-7-7-7-7-7-7-|
Bb5 PM----| ~~ 4x|-----------------------|---------------15-17-----|||-----------------------|------15-17-18----------o|||-----------------------|-------------------------|||-8---------8-(8)-5-3-0-|-(0)---------------------|||-8---------8-(8)-5-3-0-|-(0)--------------------o|||-8-8-8-8-8-8-(8)-5-3-0-|-(0)---------------------||
| | PM----| ~~
| 4x|-----------------------|-------------------------|||-----------------------|------------------------o|||-----------------------|-------------------------|||-8---------8-(8)-5-3-0-|-(0)---------------7-----|||-8---------8-(8)-5-3-0-|-(0)---5-----8----------o|||-8-8-8-8-8-8-(8)-5-3-0-|-(0)---------------------||
Outro D5 D5 PM--------| PM------||-----------------------|-----------------------||-----------------------|-----------------------||-----------------------|-----------------------||-----------------------|-----------------------||-----------------------|-----------------------||------------0-0-0-0-0--|------------0-0-0-0-0--|
|
| PM------| PM------||-----------------------|-----------------------||-----------------------|-----------------------||-----------------------|-----------------------||-----------------------|-----------------------||-0-0-0-0-0-------------|-0-0-0-0-0-------------||-0-0-0-0-0-------------|-0-0-0-0-0-------------|
D5 D5 D PM------||-----------------------|-----------------------||-----------------------|-----------------------||-----------------------|-----------------------||-----------------------|-----------------------||-----------------------|------------5b6r=(5)---||------------0-0-0-0-0--|------------0----(0)---|
|
| PM------| PM------||-----------------------|-----------------------||-----------------------|-----------------------||-----------------------|-----------------------||-----------------------|-----------------------||-0-0-0-0-0-------------|-0-0-0-0-0--5b6r=(5)---||-0-0-0-0-0-------------|-0-0-0-0-0--0----(0)---|
D5 Gtr II PM----| PM------| PM--------| PM----||----------------|----------------------|------------------||----------------|----------------------|------------------||----------------|----------------------|------------------||---------0------|----------------------|------------0-----||-0-0-0-0-0------|---0-0-0-0-0--0-0-0-0-|-0--0-0-0-0-0-----||-0-0-0-0-0------|---0-0-0-0-0--0-0-0-0-|-0--0-0-0-0-0-----|
D5 PM------| PM--------| PM----||----------------------|-----------------||----------------------|-----------------||----------------------|-----------------||----------------------|------------0----||---0-0-0-0-0--0-0-0-0-|-0--0-0-0-0-0----||---0-0-0-0-0--0-0-0-0-|-0--0-0-0-0-0----|
PM------| PM--------| PM----||----------------------|-----------------||----------------------|-----------------||----------------------|-----------------||----------------------|------------0----||---0-0-0-0-0--0-0-0-0-|-0--0-0-0-0-0----||---0-0-0-0-0--0-0-0-0-|-0--0-0-0-0-0----|
D5 D5 Gtr I|----------------------|------------------|------------------------||----------------------|------------------|-6----------6-----------||----------------------|------------7--9--|---------9----------7---||----------------------|------------------|------------------------||----------------------|------------------|------------------------||----------------------|------------------|------------------------|
|
| Gtr II| PM------| PM--------| PM----| PM----| PM----||----------------------|------------------|------------------------||----------------------|------------------|------------------------||----------------------|------------7-----|---------7----------7---||----------------------|------------7-----|---------7----------7---||---0-0-0-0-0--0-0-0-0-|-0----------5-----|-5-5-5-5-5--5-5-5-5-5---||---0-0-0-0-0--0-0-0-0-|-0--0-0-0-0-0-----|------------------------|
N.C. C5 ~ ~|--------------------------|-----------------------||--------------------------|-----------------------||-9------------------7-9-7-|-5---------------------||--------------------------|-----------------------||--------------------------|-----------------------||--------------------------|-----------------------|
|
| PM------------| PM----| PM----||--------------------------|-----------------------||--------------------------|-----------------------||-----------------5--------|---------5----------5--||-----------------5--------|---------5----------5--||-3-3-3-3-3-3-3-3-3--------|-3-3-3-3-3--3-3-3-3-3--||--------------------------|-----------------------|
N.C. Bb5 ~|----------------------|-------------------------||----------------------|-------------------------||----------------------|--------------7----------||-8--------------------|-/8-------10----------8--||----------------------|-------------------------||----------------------|-------------------------|
|
| PM------------| PM----| PM----||----------------------|-------------------------||----------------------|-------------------------||-----------------3----|-----------3----------3--||-----------------3----|-----------3----------3--||-1-1-1-1-1-1-1-1-1----|--1-1-1-1--1--1-1-1-1-1--||----------------------|-------------------------|
N.C. F5 A5 A/C# ~~~~~~~~~~~~~~~~~~~~~~~~~~~|----------------------|-------------------------||----------------------|-------------------------||----------------------|-------------------------||-7--------------------|-/11---------------------||----------------------|-------------------------||----------------------|-------------------------|
|
|----------------------|-------------------------||----------------------|-------------------------||----------------------|----------------------6--||-----------------3----|-----------7----------7--||-----------------3----|-----------7--4-4-4-4-4--||-3-3-3-3-3-3-3-3-3----|---7-7-7-7-7-------------|
N.C. D5|-----------------------|-----------------------||-----------------------|-6----------6----------||-----------------7--9--|---------9----------7--||-----------------------|-----------------------||-----------------------|-----------------------||-----------------------|-----------------------|
|
|-----------------------|-----------------------||-----------------------|-----------------------||-----------------7-----|---------7----------7--||-----------------7-----|---------7----------7--||-5-5-5-5-5-5-5-5-5-----|-5-5-5-5-5--5-5-5-5-5--||-----------------------|-----------------------|
N.C. C5 ~ ~|--------------------------|-----------------------||--------------------------|-----------------------||-9------------------7-9-7-|-5---------------------||--------------------------|-----------------------||--------------------------|-----------------------||--------------------------|-----------------------|
|
| PM------------| PM----| PM----||--------------------------|-----------------------||--------------------------|-----------------------||-----------------5--------|---------5----------5--||-----------------5--------|---------5----------5--||-3-3-3-3-3-3-3-3-3--------|-3-3-3-3-3--3-3-3-3-3--||--------------------------|-----------------------|
N.C. Bb5 ~|----------------------|-------------------------||----------------------|-------------------------||----------------------|--------------7----------||-8--------------------|-/8-------10----------8--||----------------------|-------------------------||----------------------|-------------------------|
|
| PM------------| PM----| PM----||----------------------|-------------------------||----------------------|-------------------------||-----------------3----|-----------3----------3--||-----------------3----|-----------3----------3--||-1-1-1-1-1-1-1-1-1----|--1-1-1-1--1--1-1-1-1-1--||----------------------|-------------------------|
N.C. F5 A5 A/C# ~~~~~~~~~~~~~~~~~~~~~~~~~~~|----------------------|-------------------------||----------------------|-------------------------||----------------------|-------------------------||-7--------------------|-/11---------------------||----------------------|-------------------------||----------------------|-------------------------|
|
|----------------------|-------------------------||----------------------|-------------------------||----------------------|----------------------6--||-----------------3----|-----------7----------7--||-----------------3----|-----------7--4-4-4-4-4--||-3-3-3-3-3-3-3-3-3----|---7-7-7-7-7-------------|
N.C. D5|-----------------------|-------------------------||-----------------------|--6-----------6----------||-----------------7--9--|----------9-----------7--||-----------------------|-------------------------||-----------------------|-------------------------||-----------------------|-------------------------|
|
| Gtr II|-----------------------|-------------------------||-----------------6--8--|-10-------8--10-------6--||-----------------------|-------------------------||-----------------------|-------------------------||-----------------------|-------------------------||-----------------------|-------------------------|
|
| Gtr III|-----------------------|-------------------------||-----------------------|-------------------------||-----------------7-----|----------7-----------7--||-----------------7-----|----------7-----------7--||-5-5-5-5-5-5-5-5-5-----|--5-5-5-5-5---5-5-5-5-5--||-----------------------|-------------------------|
N.C. C5 ~ ~|--------------------------|-----------------------||--------------------------|-----------------------||-9------------------7-9-7-|-5---------------------||--------------------------|-----------------------||--------------------------|-----------------------||--------------------------|-----------------------|
|
| ~ ~|--------------------------|-----------------------||-8------------------6-8-6-|-5---------------------||--------------------------|-----------------------||--------------------------|-----------------------||--------------------------|-----------------------||--------------------------|-----------------------|
|
| PM------------| PM----| PM----||--------------------------|-----------------------||--------------------------|-----------------------||-----------------5--------|---------5----------5--||-----------------5--------|---------5----------5--||-3-3-3-3-3-3-3-3-3--------|-3-3-3-3-3--3-3-3-3-3--||--------------------------|-----------------------|
N.C. Bb5 ~|----------------------|-------------------------||----------------------|-------------------------||----------------------|--------------7----------||-8--------------------|-/8-------10----------8--||----------------------|-------------------------||----------------------|-------------------------|
|
| ~|----------------------|-------------------------||----------------------|--------------6----------||-7--------------------|-/7--------9----------7--||----------------------|-------------------------||----------------------|-------------------------||----------------------|-------------------------|
|
| PM------------| PM----| PM----||----------------------|-------------------------||----------------------|-------------------------||-----------------3----|-----------3----------3--||-----------------3----|-----------3----------3--||-1-1-1-1-1-1-1-1-1----|--1-1-1-1--1--1-1-1-1-1--||----------------------|-------------------------|
N.C. F5 A5 A/C# ~~~~~~~~~~~~~~~~~~~~~~~~~~~|----------------------|-------------------------||----------------------|-------------------------||----------------------|-------------------------||-7--------------------|-/11---------------------||----------------------|-------------------------||----------------------|-------------------------|
|
| ~~~~~~~~~~~~~~~~~~~~~~~~~~~|----------------------|-------------------------||----------------------|-------------------------||-5--------------------|--/9---------------------||----------------------|-------------------------||----------------------|-------------------------||----------------------|-------------------------|
|
|----------------------|-------------------------||----------------------|-------------------------||----------------------|----------------------6--||-----------------3----|-----------7----------7--||-----------------3----|-----------7--4-4-4-4-4--||-3-3-3-3-3-3-3-3-3----|---7-7-7-7-7-------------|
N.C. D5|-----------------------|---------------------------||-----------------------|--6-----------6--------10--||-----------------7--9--|----------9----------------||-----------------------|---------------------------||-----------------------|---------------------------||-----------------------|---------------------------|
|
|-----------------------|----------------------/10--||-----------------6--8--|-10-------8--10------------||-----------------------|---------------------------||-----------------------|---------------------------||-----------------------|---------------------------||-----------------------|---------------------------|
|
| PM------------| PM----| PM----||-----------------------|---------------------------||-----------------------|---------------------------||-----------------7-----|----------7-------------7--||-----------------7-----|----------7-------------7--||-5-5-5-5-5-5-5-5-5-----|--5-5-5-5-5---5-5-5-5---5--||-----------------------|---------------------------|
N.C. C5 ~|---------------------------|-----------------------||-10------------------------|-----------------------||---------------------7-9-7-|-5---------------------||---------------------------|-----------------------||---------------------------|-----------------------||---------------------------|-----------------------|
|
| ~|--8------------------------|-----------------------||---------------------6-8-6-|-5---------------------||---------------------------|-----------------------||---------------------------|-----------------------||---------------------------|-----------------------||---------------------------|-----------------------|
|
| PM------------| PM----| PM----||---------------------------|-----------------------||---------------------------|-----------------------||------------------5--------|---------5----------5--||------------------5--------|---------5----------5--||--3-3-3-3-3-3-3-3-3--------|-3-3-3-3-3--3-3-3-3-3--||---------------------------|-----------------------|
N.C. Bb5 ~|----------------------|-------------------------||----------------------|-------------------------||----------------------|--------------7----------||-8--------------------|-/8-------10----------8--||----------------------|-------------------------||----------------------|-------------------------|
|
| ~|----------------------|-------------------------||----------------------|--------------6----------||-7--------------------|-/7--------9----------7--||----------------------|-------------------------||----------------------|-------------------------||----------------------|-------------------------|
|
| PM------------| PM----| PM----||----------------------|-------------------------||----------------------|-------------------------||-----------------3----|-----------3----------3--||-----------------3----|-----------3----------3--||-1-1-1-1-1-1-1-1-1----|--1-1-1-1--1--1-1-1-1-1--||----------------------|-------------------------|
N.C. F5 A5 A/C# ~~~~~~~~~~~~~~~~~~~~~~~~~~~|----------------------|-------------------------||----------------------|-------------------------||----------------------|-------------------------||-7--------------------|-/11---------------------||----------------------|-------------------------||----------------------|-------------------------|
|
| ~~~~~~~~~~~~~~~~~~~~~~~~~~~|----------------------|-------------------------||----------------------|-------------------------||-5--------------------|--/9---------------------||----------------------|-------------------------||----------------------|-------------------------||----------------------|-------------------------|
|
|----------------------|-------------------------||----------------------|-------------------------||----------------------|----------------------6--||-----------------3----|-----------7----------7--||-----------------3----|-----------7--4-4-4-4-4--||-3-3-3-3-3-3-3-3-3----|---7-7-7-7-7-------------|
F5 Gtr I|----------12-12h13-15p12h13--------|----------12-12h13-15p12h13-------||-------13-------------------13-----|-------13-------------------13----||----14--------------------------14-|----14-------------------------14-||-15--------------------------------|-15-------------------------------||-----------------------------------|----------------------------------||-----------------------------------|----------------------------------|
|
| Gtr II|-----------------------------------|----------------------------------||-----------------------------------|----------------------------------||-----------------------------------|----------------------------------||--3--------------3----------(3)--3-|--3-----3--------3-----------3----||--3--------------3----------(3)--3-|--3-----3--------3-----------3----||--3--------------3----------(3)--3-|--3-----3--------3-----------3----|
C5|-------------10h12-13p10h12--------|-------------10h12-13p10h12-------||----------11----------------11-----|----------11----------------11----||----12-14-----------------------12-|----12-14----------------------12-||-14--------------------------------|-14-------------------------------||-----------------------------------|----------------------------------||-----------------------------------|----------------------------------|
|
|-----------------------------------|----------------------------------||-----------------------------------|----------------------------------||--5--------------5----------(5)--5-|--5-----5--------5-----------5----||--5--------------5----------(5)--5-|--5-----5--------5-----------5----||--3--------------3----------(3)--3-|--3-----3--------3-----------3----||-----------------------------------|----------------------------------|
Bb5|-------------------------13h=15---15h17-|-----------------13h15-15h17-||-18-17-15----13h15h17p15----------------|-18-17-15----15--------------||----------15----------------------------|----------15-----------------||----------------------------------------|-----------------------------||----------------------------------------|-----------------------------||----------------------------------------|-----------------------------|
|
|----------------------------------------|-----------------------------||----------------------------------------|-----------------------------||--3--------------3-------(3)----3-------|--3-----3-----3---3----------||--3--------------3-------(3)----3-------|--3-----3-----3---3----------||--1--------------1-------(1)----1-------|--1-----1-----1---1----------||----------------------------------------|-----------------------------|
A5|--------------------------------------|---------------------------------||-17-15h17-14-14h15--------------------|----------------------------17---||-------------------15-14h15-14--12h14-|-------------------15-14h15------||--------------------------------------|-14-15p14-17-15h17---------------||--------------------------------------|---------------------------------||--------------------------------------|---------------------------------|
|
|--------------------------------------|---------------------------------||--------------------------------------|---------------------------------||--------------------------------------|---------------------------------||--7-----------------7-------(7)--7----|--7--------7--------7--------7---||--7-----------------7-------(7)--7----|--7--------7--------7--------7---||--7-----------------7-------(7)--7----|--7--------7--------7--------7---|
F5 ~~|----------------|-------------------------||-18-------------|-------------------------||----------------|-10-10-14-14-14-14-10-10-||----------------|-------------------------||----------------|--8--8-12-12-12-12--8--8-||----------------|-------------------------|
|
|----------------|-------------------------||----------------|-------------------------||----------------|-------------------------||--3----3--(3)-3-|--3-----3-----3-----3----||--3----3--(3)-3-|--3-----3-----3-----3----||--3----3--(3)-3-|--3-----3-----3-----3----|
C5|------------------|---------------------||------------------|---------------------||-9-9-9-9-9--(9)-9-|-9-9-12-12-12-12-9-9-||------------------|---------------------||-7-7-7-7-7--(7)-7-|-7-7-10-10-10-10-7-7-||------------------|---------------------|
|
|------------------|---------------------||------------------|---------------------||-5-------5--(5)-5-|-5----5-----5----5---||-5-------5--(5)-5-|-5----5-----5----5---||-3-------3--(3)-3-|-3----3-----3----3---||------------------|---------------------|
H.=H Bb5 A5|---------------|-------------|-----------------|--------||---------------|-------------|-----------------|--------||-9----7--------|-7-----7-----|-6--6--/9--------|-(9)----||---------------|-------------|-----------------|--------||-7----5--------|-5-----5-----|-4--4--/7--------|-(7)----||---------------|-------------|-----------------|--------|
|
|---------------|-------------|-----------------|--------||---------------|-------------|-----------------|--------||-3----3--(3)-3-|-3--3--3--3--|-----------------|--------||-3----3--(3)-3-|-3--3--3--3--|-7------7--(7)-7-|-(7)----||-1----1--(1)-1-|-1--1--1--1--|-7------7--(7)-7-|-(7)----||---------------|-------------|-7------7--(7)-7-|-(7)----|
Q=90 A5 F|------------|--------||------------|-^10----||-(9)--------|-^10----||------------|-^10----||-(7)--------|-^-8----||------------|--------|
|
|------------|--------||------------|--------||------------|--------||-(7)--------|---3----||-(7)--------|---3----||-(7)--------|---3----|
|--------------|---------------*||-^(10)--------|-(10)----------*||-^(10)--------|-(10)----------*||-^(10)--------|-(10)----------*||-^-(8)--------|--(8)----------*||--------------|---------------*|
|
|--------------|---------------*||--------------|---------------*||--------------|---------------*||---(3)--------|--(3)----------*||---(3)--------|--(3)----------*||---(3)--------|--(3)----------*|
Tablature Legend ---------------- h - hammer-on p - pull-off b - bend pb - pre-bend r - bend release (if no number after the r, then release immediately) /\ - slide into or out of (from/to "nowhere") s - legato slide S - shift slide - natural harmonic [n] - artificial harmonic n(n) - tapped harmonic ~ - vibrato tr - trill T - tap TP - trem. picking PM - palm muting \n/ - tremolo bar dip; n = amount to dip \n - tremolo bar down n/ - tremolo bar up /n\ - tremolo bar inverted dip = - hold bend; also acts as connecting device for hammers/pulls <> - volume swell (louder/softer) x - on rhythm slash represents muted slash o - on rhythm slash represents single note slash
Tap to rate this tab
 
# A B C D E F G H I J K L M N O P Q R S T U V W X Y Z