Avenged Sevenfold - City Of Evil tab

Beast And The HarlotGtr I|------------------------||----------------------||------------------------||----------------------||------------------------||--7----7--7--7--7---7-||--4---4--4--4--4--4---4-||--7----7--7--7--7---7-||--4---4--4--4--4--4---4-||--5----5--5--5--5---5-||--4---4--4--4--4--4---4-||----------------------|
|
| Gtr II| ~~ ~~ ~~ ~~|------------------------||----------------------||--7---7--6--7--9-10---5-||--6----6--5--6--8--/6-||------------------------||----------------------||------------------------||----------------------||------------------------||----------------------||------------------------||----------------------|
|
| Gtr IV|------------------------||----------------------||-19--19-18-19-21-22--17-||-18---18-17-18-20--18-||------------------------||----------------------||-16--16-15-16-18-19--14-||-15---15-14-15-17--15-||------------------------||----------------------||------------------------||----------------------|
Db5 C5 6/8|----------------------|------------------||----------------------|------------------||--6----6--6--6--6---6-|--5------5--5--5--||--6----6--6--6--6---6-|--5------5--5--5--||--4----4--4--4--4---4-|--3------3--3--3--||----------------------|------------------|
|
| ~~ ~~ ~~|----------------------|------------------||--6----6--5--6--8--/6-|--6---6--5--6--8--||----------------------|------------------||----------------------|------------------||----------------------|------------------||----------------------|------------------|
|
|----------------------|------------------||-18---18-17-18-20--18-|-18--18-17-18-20--||----------------------|------------------||-15---15-14-15-17--15-|-15--15-14-15-17--||----------------------|------------------||----------------------|------------------|
F5 Db5|-----------------------------|--------------------------||-----------------------------|--------------------------||-----------------------------|---6-6-6---6---6--6--6--6-||--3-3-3--3---3--3-3-3--3---3-|---6-6-6---6---6--6--6--6-||--3-3-3--3---3--3-3-3--3---3-|---4-4-4---4---4--4--4--4-||--3-3-3--3---3--3-3-3--3---3-|--------------------------|
|
| ~~ ~~ ~~~|-----------------------------|--------------------------||-/9-----(9)\---/9-----(9)\---|-/11-----(11)\----9-11-13-||-----------------------------|--------------------------||-----------------------------|--------------------------||-----------------------------|--------------------------||-----------------------------|--------------------------|
|
|-16------------16------------|--18-------------16-18-20-||-----------------------------|--------------------------||-13------------13------------|--15-------------13-15-17-||-----------------------------|--------------------------||-----------------------------|--------------------------||-----------------------------|--------------------------|
Bb5|---------------------------------||---------------------------------||---3-3-3---3---3---3-3-3---3---3-||---3-3-3---3---3---3-3-3---3---3-||---1-1-1---1---1---1-1-1---1---1-||---------------------------------|
|
| ~~~ ~~~|---------------------------------||-/14-----(14)\---/14-----(14)\---||---------------------------------||---------------------------------||---------------------------------||---------------------------------|
|
|--21--------------21-------------||---------------------------------||--18--------------18-------------||---------------------------------||---------------------------------||---------------------------------|
A5|-----------------|----------------|||-----------------|----------------|||--2--------------|--(2)-----------|||--2--------------|--(2)-----------|||--0--------------|--(0)-----------|||-----------------|----------------||
|
| ~~~~~~~~~~~~~~~~~~~~|-----------------|----------------|||-16b17====(16)---|-(16)---(16)r---|||-----------------|----------------|||-----------------|----------------|||-----------------|----------------|||-----------------|----------------||
|
|-21--------------|-(21)-----------|||-----------------|----------------|||-18--------------|-(18)-----------|||-----------------|----------------|||-----------------|----------------|||-----------------|----------------||
Faster Q=155 D5 4/4 Gtr I|----------|------------|------------|--------||----------|------------|------------|--------||----------|------------|------------|--------||-0--------|-(0)--------|-(0)--------|-(0)----||-0--------|-(0)--------|-(0)--------|-(0)----||-0--------|-(0)--------|-(0)--------|-(0)----|
|
| Gtr II|----------|------------|------------|--------||----------|------------|------------|--------||----------|------------|------------|--------||-0--------|-(0)--------|-(0)--------|-(0)----||-0--------|-(0)--------|-(0)--------|-(0)----||-0--------|-(0)--------|-(0)--------|-(0)----|
D5 Gtr I|--------------------------------|-----------------------------||--------------------------------|-----------------------------||--------------------------------|-----------------------------||--0-----------------------------|--(0)------------------------||--0-----------------------------|--(0)------------------------||--0-----------------------------|--(0)------------------------|
|
| Gtr II| PM----| PM----| PM----| PM----| PM----||--------------------------------|-----------------------------||--------------------------------|-----------------------------||--------------------------------|-----------------------------||--0-0-0-0-15-0-0-0-0-17-0-0-0-0-|--18--0-0-0-0-17-0-0-0-0-15--||--------------------------------|-----------------------------||--------------------------------|-----------------------------|
|
| Gtr III|-22-----------------------------|-(22)------------------------||--------------------------------|-----------------------------||--------------------------------|-----------------------------||--------------------------------|-----------------------------||--------------------------------|-----------------------------||--------------------------------|-----------------------------|
|----------------------------------|-------------------------------||----------------------------------|-------------------------------||----------------------------------|-------------------------------||--(0)-----------------------------|--(0)--------------------------||--(0)-----------------------------|--(0)--------------------------||--(0)-----------------------------|--(0)--------------------------|
|
| PM-----| PM----| PM----| PM----| PM----||----------------------------------|-------------------------------||----------------------------------|-------------------------------||----------------------------------|-------------------------------||---0--0-0-0-15-0-0-0-0-17-0-0-0-0-|--18--0-0-0-0-17-0-0-0-0-15----||----------------------------------|-------------------------------||----------------------------------|-------------------------------|
|
|-(22)-----------------------------|-(22)--------------------------||----------------------------------|-------------------------------||----------------------------------|-------------------------------||----------------------------------|-------------------------------||----------------------------------|-------------------------------||----------------------------------|-------------------------------|
D5|----------------------------------|----------------------------||----------------------------------|----------------------------||----------------------------------|----------------------------||--(0)-----------------------------|-(0)------------------------||--(0)-----------------------------|-(0)------------------------||--(0)-----------------------------|-(0)------------------------|
|
| PM-----| PM----| PM----| PM----| PM----||----------------------------------|----------------------------||----------------------------------|----------------------------||----------------------------------|----------------------------||---0--0-0-0-15-0-0-0-0-17-0-0-0-0-|-18--0-0-0-0-17-0-0-0-0-15--||----------------------------------|----------------------------||----------------------------------|----------------------------|
|
|-(22)-----------------------------|----------------------------||----------------------------------|----------------------------||----------------------------------|----------------------------||----------------------------------|----------------------------||----------------------------------|----------------------------||----------------------------------|----------------------------|
|---------------------------------|------------------------------------------|||---------------------------------|------------------------------------------|||---------------------------------|------------------------------------------|||-(0)-----------------------------|-(0)--------------------------------------|||-(0)-----------------------------|-(0)--------------------------------------|||-(0)-----------------------------|-(0)--------------------------------------||
|
| PM-----| PM----| PM----| PM----||---------------------------------|-------------------------10s13-10----13---|||---------------------------------|----------------------10----------13------|||---------------------------------|-------------12-10-13---------------------|||--0--0-0-0-15-0-0-0-0-17-0-0-0-0-|-18--0-0-0-0------------------------------|||---------------------------------|------------------------------------------|||---------------------------------|------------------------------------------||
|
|---------------------------------|------------------------------------------|||---------------------------------|------------------------------------------|||---------------------------------|------------------------------------------|||---------------------------------|------------------------------------------|||---------------------------------|------------------------------------------|||---------------------------------|------------------------------------------||
Pre-Verse N.C. F5 G5 Ab5 G5 F5G5 PM--------| PM----| PM----| PM----| PM----||-------------------------------------|----------------------------||-------------------------------------|----------------------------||-------------------------------------|----------------------------||----------------3----------5---------|---6----------5---------3-5-||----------------3----------5---------|---6----------5---------3-5-||--0-----0-0-0---3--0-0-0-0-5-0-0-0-0-|---6--0-0-0-0-5-0-0-0-0-3-5-|
|
|-10----------------------------------|----------------------------||-------------------------------------|----------------------------||-------------------------------------|----------------------------||-------------------------------------|----------------------------||-------------------------------------|----------------------------||-------------------------------------|----------------------------|
|
|-20b22========(20)-------------------|-(20)-----------------------||-------------------------------------|----------------------------||-------------------------------------|----------------------------||-------------------------------------|----------------------------||-------------------------------------|----------------------------||-------------------------------------|----------------------------|
F5 G5 Ab5 F5 G5 Ab5 PM-----| PM----| PM| PM------| PM----| PM||------------------------------|----------------------------------||------------------------------|----------------------------------||------------------------------|----------------------------------||------------3---------5-----6-|-------------3---------5-----6----||------------3---------5-----6-|-------------3---------5-----6----||---0--0-0-0-3-0-0-0-0-5-0-0-6-|---0---0-0-0-3-0-0-0-0-5-0-0-6----|
|
|------------------------------|----------------------------------||------------------------------|----------------------------------||------------------------------|----------------------------------||------------------------------|----------------------------------||------------------------------|----------------------------------||------------------------------|----------------------------------|
|
|-(20)-------------------------|-(20)r----------------------------||------------------------------|----------------------------------||------------------------------|----------------------------------||------------------------------|----------------------------------||------------------------------|----------------------------------||------------------------------|----------------------------------|
N.C. F5 G5 Ab5 G5 F5G5 Gtr I PM----| PM----| PM----| PM----| PM----||-----------------------------|-------------------------||-----------------------------|-------------------------||-----------------------------|-------------------------||---------3---------5---------|-6---------5---------3-5-||---------3---------5---------|-6---------5---------3-5-||-0-0-0-0-3-0-0-0-0-5-0-0-0-0-|-6-0-0-0-0-5-0-0-0-0-3-5-|
F5 G5 Ab5 F5 PM----| PM----| PM| PM----| PM----| PM||---------------------------|------------------------------|||---------------------------|------------------------------|||---------------------------|------------------------------|||---------3---------5-----6-|---------3---------3-----3----|||---------3---------5-----6-|---------3---------3-----3----|||-0-0-0-0-3-0-0-0-0-5-0-0-6-|-0-0-0-0-3-0-0-0-0-3-0-0-3----||
Verse $ N.C. F5 G5 Ab5 G5 F5G5 Gtrs I, II PM----| PM----| PM----| PM----| PM----|||------------------------------|-------------------------|||o-----------------------------|-------------------------|||------------------------------|-------------------------|||----------3---------5---------|-6---------5---------3-5-|||o---------3---------5---------|-6---------5---------3-5-|||--0-0-0-0-3-0-0-0-0-5-0-0-0-0-|-6-0-0-0-0-5-0-0-0-0-3-5-|
N.C. F5 G5 Ab5 F5 G5 Ab5 PM----| PM----| PM| PM----| PM----| PM||---------------------------|------------------------------||---------------------------|------------------------------||---------------------------|------------------------------||---------3---------5-----6-|---------3---------5-----6----||---------3---------5-----6-|---------3---------5-----6----||-0-0-0-0-3-0-0-0-0-5-0-0-6-|-0-0-0-0-3-0-0-0-0-5-0-0-6----|
N.C. F5 G5 Ab5 G5 F5G5 PM----| PM----| PM----| PM----| PM----||-----------------------------|-------------------------||-----------------------------|-------------------------||-----------------------------|-------------------------||---------3---------5---------|-6---------5---------3-5-||---------3---------5---------|-6---------5---------3-5-||-0-0-0-0-3-0-0-0-0-5-0-0-0-0-|-6-0-0-0-0-5-0-0-0-0-3-5-|
N.C. F5 G5 Ab5 F5 PM----| PM----| PM| PM----| PM----| PM||---------------------------|------------------------------||---------------------------|------------------------------||---------------------------|------------------------------||---------3---------5-----6-|---------3---------3-----3----||---------3---------5-----6-|---------3---------3-----3----||-0-0-0-0-3-0-0-0-0-5-0-0-6-|-0-0-0-0-3-0-0-0-0-3-0-0-3----|
Bb5 G5 Ab5A5 Bb5 A5 Bb5B5 C5|-----------|--------------||---------------|||-----------|-------------o||---------------|||-----------|--------------||---------------|||-8------8S=|=5--6--7--8---||-7--8--9--10\--|||-8------8S=|=5--6--7--8--o||-7--8--9--10\--|||-8------8S=|=5--6--7--8---||-7--8--9--10\--||
Chorus $$ F5 Gtr I||------------------------------------|||o-----------------------------------|||------------------------------------|||---3--3-3-(3)-3--3--3--3-3-(3)-3--3-|||o--3--3-3-(3)-3--3--3--3-3-(3)-3--3-|||---3--3-3-(3)-3--3--3--3-3-(3)-3--3-|
|
| Gtr II||----------------13---------------13-|||o---------13---------------13-------|||-----14---------------14------------|||--15---------------15---------------|||o-----------------------------------|||------------------------------------|
C5|-----------------------------------------||-----------------------------------------||-----------------------------------------||-10-10-10-(10)-10-10-10-10-10-(10)-10-10-||-10-10-10-(10)-10-10-10-10-10-(10)-10-10-||-10-10-10-(10)-10-10-10-10-10-(10)-10-10-|
|
|------------------12------------------12-||-----------13------------------13--------||----12------------------12---------------||-14------------------14------------------||-----------------------------------------||-----------------------------------------|
Bb5|-----------------------------------|------------------------------------|||-----------------------------------|-----------------------------------o|||-----------------------------------|------------------------------------|||--8--8-8-(8)-8--8--8--8-8-(8)-8--8-|--8--8-8-(8)-8--8--8--8-8-(8)-8--8--|||--8--8-8-(8)-8--8--8--8-8-(8)-8--8-|--8--8-8-(8)-8--8--8--8-8-(8)-8--8-o|||--8--8-8-(8)-8--8--8--8-8-(8)-8--8-|--8--8-8-(8)-8--8--8--8-8-(8)-8--8--||
|
|---------------10---------------10-|---------------10-10------12--------|||---------11---------------11-------|---------11----------11---------13-o|||----10---------------10------------|----10------------------------------|||-12---------------12---------------|-12---------------------------------|||-----------------------------------|-----------------------------------o|||-----------------------------------|------------------------------------||
G5 F5|-----------------------------------|-----------------------------------||-----------------------------------|-----------------------------------||-----------------------------------|-----------------------------------||--5--5-5-(5)-5--5--5--5-5-(5)-5--5-|--3--3-3-(3)-3--3--3--3-3-(3)-3--3-||--5--5-5-(5)-5--5--5--5-5-(5)-5--5-|--3--3-3-(3)-3--3--3--3-3-(3)-3--3-||--5--5-5-(5)-5--5--5--5-5-(5)-5--5-|--3--3-3-(3)-3--3--3--3-3-(3)-3--3-|
|
|---------------15---------------15-|---------------13---------------13-||---------15---------------15-------|---------13---------------13-------||----15---------------15------------|----14---------------14------------||-17---------------17---------------|-15---------------15---------------||-----------------------------------|-----------------------------------||-----------------------------------|-----------------------------------|
C5 Bb5|-----------------------------------------|-----------------------------------||-----------------------------------------|-----------------------------------||-----------------------------------------|-----------------------------------||-10-10-10-(10)-10-10-10-10-10-(10)-10-10-|--8--8-8-(8)-8--8--8--8-8-(8)-8--8-||-10-10-10-(10)-10-10-10-10-10-(10)-10-10-|--8--8-8-(8)-8--8--8--8-8-(8)-8--8-||-10-10-10-(10)-10-10-10-10-10-(10)-10-10-|--8--8-8-(8)-8--8--8--8-8-(8)-8--8-|
|
|------------------12------------------12-|---------------10---------------10-||-----------13------------------13--------|---------11---------------11-------||----12------------------12---------------|----10---------------10------------||-14------------------14------------------|-12---------------12---------------||-----------------------------------------|-----------------------------------||-----------------------------------------|-----------------------------------|
F5 Bb5 E5 Bb5 D5 Bb5 C5 Bb5A5 Bb5|---------------------------|--------------------------||---------------------------|--------------------------||-10------------9-----------|--------------------------||-10--8-(8)--8--9--8-(8)--8-|-12--8-(8)--8-10--8--7--8-||--8--8-(8)--8--7--8-(8)--8-|-12--8-(8)--8-10--8--7--8-||-----8-(8)--8-----8-(8)--8-|-12--8-(8)--8-10--8--7--8-|
|
|-13-----------12-----------|-10-----------------------||----11-----11----11-----11-|----11-----11-13-11-10-11-||-------10-----------10-----|-------10-----------------||---------------------------|--------------------------||---------------------------|--------------------------||---------------------------|--------------------------|
To Coda To Coda A5 Db6|----------------------------|-----------------------------|||----------------------------|-----------------------------|||----------------------------|-----------------------------|||--7--7-(7)--7-11-11-(11)-11-|-11-11-(11)-11-11-11-(11)-11-|||--7--7-(7)--7-12-12-(12)-12-|-12-12-(12)-12-12-12-(12)-12-|||--7--7-(7)--7-11-11-(11)-11-|-11-11-(11)-11-11-11-(11)-11-||
|
|-12-----------10------------|--9--------------------------|||----10-----10----10------10-|----10------10-11-10---------|||--------9-------------9-----|---------9-------------9-----|||----------------------------|--------------------------11-|||----------------------------|-----------------------------|||----------------------------|-----------------------------||
Bridge N.C. F5 G5 Ab5 G5 F5G5 Gtr I PM----| PM----| PM------| PM----| PM----||----------------------------------|--------------------------||----------------------------------|--------------------------||----------------------------------|--------------------------||----------3---------5-------------|--6---------5---------3-5-||----------3---------5-------------|--6---------5---------3-5-||--0-0-0-0-3-0-0-0-0-5---0---0-0-0-|--6-0-0-0-0-5-0-0-0-0-3-5-|
|
| Gtrs II, III Gtr II|-10-------------------(10)\-------|-13-----------------------||----------------------------------|--------------------------||--7--------------------(7)\-------|--------------------------||----------------------------------|--------------------------||----------------------------------|--------------------------||----------------------------------|--------------------------|
N.C. F5 G5 Ab5 F5 PM----| PM----| PM| PM----| PM----| PM||----------------------------|------------------------------------||----------------------------|------------------------------------||----------------------------|------------------------------------||----------3---------5-----6-|--------------3----------3-----3----||----------3---------5-----6-|--------------3----------3-----3----||--0-0-0-0-3-0-0-0-0-5-0-0-6-|--0-0-0---0---3--0-0-0-0-3-0-0-3----|
|
|-16-------------------------|-16-----/16-(16)--------------------||----------------------------|------------------------------------||----------------------------|------------------------------------||----------------------------|------------------------------------||----------------------------|------------------------------------||----------------------------|------------------------------------|
Bb5 G5 Ab5 A5 Bb5|---------------------------------|-----------------------------||---------------------------------|-----------------------------||---------------------------------|-----------------------------||--8----------------------8S======|==5------6------7------8-----||--8----------------------8S======|==5------6------7------8-----||--8----------------------8S======|==5------6------7------8-----|
|
|-13-10----10---------------------|-----------------------------||-------13----13b15=====(13)r(13)-|--8------9-----10-----11-----||---------------------------------|-10b12--11b13--12b14--13b15--||---------------------------------|-----------------------------||---------------------------------|-----------------------------||---------------------------------|-----------------------------|
A5 Bb5 B5 C5|--------------------------------------------------|||--------------------------------------------------|||--------------------------------------------------|||--7-----------8-----------9----------10\----------|||--7-----------8-----------9----------10\----------|||--7-----------8-----------9----------10\----------||
|
|-----------------------------------------12-13-15-|||-13-12-11-10-14-13-12-11-15-14-13-14s15-----------|||--------------------------------------------------|||--------------------------------------------------|||--------------------------------------------------|||--------------------------------------------------||
Guitar Solo F5|----------------------------------------------||----------------------------------------------||----------------------------------------------||--3-3-3--(3)-3--3-----3-----3--3-(3)--3--3----||--3-3-3--(3)-3--3-----3-----3--3-(3)--3--3----||--3-3-3--(3)-3--3-----3-----3--3-(3)--3--3----|
|
|-17-----(17)---17-------17--------------------||------------------18-17----17-18-17-----17----||-------------------------------------17----17-||----------------------------------------------||----------------------------------------------||----------------------------------------------|
C5|---------------------------------------------------||---------------------------------------------------||---------------------------------------------------||-10----10-10-(10)-10-10---10---10-10-(10)-10-10----||-10----10-10-(10)-10-10---10---10-10-(10)-10-10----||-10----10-10-(10)-10-10---10---10-10-(10)-10-10----|
|
|-20-17---------------------------------------------||-------20-17S==3---1----1--------------------------||----------------------2----------------------------||---------------------------------------5---6--7-8--||---------------------------5-6--7--8---------------||---------------------------------------------------|
Bb5|---------------------------------||---------------------------------||---------------------------------||-8-8-8-(8)-8-8---8-8-8-(8)-8-8---||-8-8-8-(8)-8-8---8-8-8-(8)-8-8---||-8-8-8-(8)-8-8---8-8-8-(8)-8-8---|
|
|---------------------------------||---------------------------------||-7-----(7)S====5-9-----(9)---7-9-||---------------------------------||---------------------------------||---------------------------------|
|---------------------------------------------||---------------------------------------------||---------------------------------------------||--8-8-8--(8)-8-8-----8-----8--8-(8)--8--8----||--8-8-8--(8)-8-8-----8-----8--8-(8)--8--8----||--8-8-8--(8)-8-8-----8-----8--8-(8)--8--8----|
|
|------------------------------------------12-||-----------------------10-13-10-----10-13----||-10-----(10)---9-10-13----------13-----------||---------------------------------------------||---------------------------------------------||---------------------------------------------|
F5 Gtr I|-----------------------------------------------||-----------------------------------------------||-----------------------------------------------||---3-3-3--(3)-3---3-----3---3---3--(3)-3---3---||---3-3-3--(3)-3---3-----3---3---3--(3)-3---3---||---3-3-3--(3)-3---3-----3---3---3--(3)-3---3---|
|
| Gtr II|-/13-----(13)---(13)\-/13-(13)\---/15----(15)\-||-----------------------------------------------||-----------------------------------------------||-----------------------------------------------||-----------------------------------------------||-----------------------------------------------|
|
| Gtr III|-/17-----(17)---(17)\-/17-(17)\---/18----(18)\-||-----------------------------------------------||-----------------------------------------------||-----------------------------------------------||-----------------------------------------------||-----------------------------------------------|
C5|-------------------------------------------------||-------------------------------------------------||-------------------------------------------------||--10-10-10-(10)-10--10----10-10-10-(10)-10--10---||--10-10-10-(10)-10--10----10-10-10-(10)-10--10---||--10-10-10-(10)-10--10----10-10-10-(10)-10--10---|
|
|-/12-------(12)----(12)\-------------------------||-------------------------/13-------(13)----(13)\-||-------------------------------------------------||-------------------------------------------------||-------------------------------------------------||-------------------------------------------------|
|
|-/15-------(15)----(15)\-------------------------||-------------------------/17-------(17)----(17)\-||-------------------------------------------------||-------------------------------------------------||-------------------------------------------------||-------------------------------------------------|
Bb5|-------------------------------------------------||-------------------------------------------------||-------------------------------------------------||--8-----8-8--(8)-8---8----8------8-8--(8)-8---8--||--8-----8-8--(8)-8---8----8------8-8--(8)-8---8--||--8-----8-8--(8)-8---8----8------8-8--(8)-8---8--|
|
|-------------------------------------------------||-13b15======(13)r==(13)-(13)b15======(13)r==(13)-||-------------------------------------------------||-------------------------------------------------||-------------------------------------------------||-------------------------------------------------|
|
|-12b13======(12)r==(12)-(12)b13======(12)r==(12)-||-------------------------------------------------||-------------------------------------------------||-------------------------------------------------||-------------------------------------------------||-------------------------------------------------|
|-------------------------------||-------------------------------||-------------------------------||--8--8-8-(8)-8-8-8-8-8-(8)-8-8-||--8--8-8-(8)-8-8-8-8-8-(8)-8-8-||--8--8-8-(8)-8-8-8-8-8-(8)-8-8-|
|
| ~~~|-------------------------------||-------------------------------||-[5]---------------------------||-------------------------------||-------------------------------||-------------------------------|
|
| ~~~|-------------------------------||-[5]---------------------------||-------------------------------||-------------------------------||-------------------------------||-------------------------------|
G5 Gtr I|-----------------------------------------------------||-----------------------------------------------------||-----------------------------------------------------||-5---5-5-(5)-5-5---5-------5---5---(5)---5---5-------||-5---5-5-(5)-5-5---5-------5---5---(5)---5---5-------||-5---5-5-(5)-5-5---5-------5---5---(5)---5---5-------|
|
| Gtr II| PM---------------------------------------------------|-----------------------------------------------------||-----------------------------------------------------||-------------------8-7-6-5-8-7-6-5-------------------||----------5--6-7-8------------------8--7-6-5-8-7-6-5-||-5-6-7-8---------------------------------------------||-----------------------------------------------------|
F5|-----------------------------------------------------------||-----------------------------------------------------------||-----------------------------------------------------------||-3---3--3-(3)-3-3-----3--------3---3---(3)---3----3--------||-3---3--3-(3)-3-3-----3--------3---3---(3)---3----3--------||-3---3--3-(3)-3-3-----3--------3---3---(3)---3----3--------|
|
|--------------------------------------------------------||-----------------------------------------------------------||-----------------------------------------------------------||---------------------10-9-8-7-10-9-8-7---------------------||-----------7--8-9-10-------------------10--9-8-7-10-9-8-7--||-7-8-9-10--------------------------------------------------||-----------------------------------------------------------|
C5|-------------------------------------------------------------||-------------------------------------------------------------||-------------------------------------------------------------||-10----10-10-(10)-10-10----10---10-10-(10)----10----10-------||-10----10-10-(10)-10-10----10---10-10-(10)----10----10-------||-10----10-10-(10)-10-10----10---10-10-(10)----10----10-------|
|
|-------------------------------------------------------------||---------------------------------------10--11----13-10-11-13-||---------------------------12-9-10-12------------------------||--------------10--11-12-13-----------------------------------||-10-11-12-13-------------------------------------------------||-------------------------------------------------------------|
Bb5|----------------------------------------------------------||----------------------------------------------------------||----------------------------------------------------------||--8--------8----8----(8)----8-----8--------8-8-8-(8)-8-8--||--8--------8----8----(8)----8-----8--------8-8-8-(8)-8-8--||--8--------8----8----(8)----8-----8--------8-8-8-(8)-8-8--|
|
| ~~|-10-12-13-12-10-------------------------------------------||------------------13-10--11---13-11-10--------------------||---------------------------------------12-10--------------||----------------------------------------------------------||----------------------------------------------------------||----------------------------------------------------------|
Bb5 Gtr I|---------------------------------------------------||---------------------------------------------------||---------------------------------------------------||--8-----8--8-(8)--8--8-----8-----8--8-(8)--8--8----||--8-----8--8-(8)--8--8-----8-----8--8-(8)--8--8----||--8-----8--8-(8)--8--8-----8-----8--8-(8)--8--8----|
|
| Gtr II|-13-12-11-10---------------------------------------||-------------14--13-12-11-10-----------------------||-----------------------------13-12-11-10-----------||------------------------------------------14-13-12-||---------------------------------------------------||---------------------------------------------------|
|
| Gtr III|-22-21-20-19---------------------------------------||-------------23--22-21-20--------------------------||--------------------------23-22-21-20--------------||--------------------------------------24--23-22-21-||---------------------------------------------------||---------------------------------------------------|
|---------------------------------------------------||---------------------------------------------------||---------------------------------------------------||--8-----8--8-(8)--8--8-----8-----8--8-(8)--8--8----||--8-----8--8-(8)--8--8-----8-----8--8-(8)--8--8----||--8-----8--8-(8)--8--8-----8-----8--8-(8)--8--8----|
|
|-12-11-10------------------------------------------||----------14-13--12-11-10--------------------------||--------------------------13-12-11-10--------------||--------------------------------------14--13-12-11-||---------------------------------------------------||---------------------------------------------------|
|
|-21-20-19-18---------------------------------------||-------------22--21-20-19--------------------------||--------------------------22-21-20-19--------------||--------------------------------------23--22-21-20-||---------------------------------------------------||---------------------------------------------------|
A5|---------------------------------------------------||---------------------------------------------------||---------------------------------------------------||--7-----7--7-(7)--7--7-----7-----7--7-(7)--7--7----||--7-----7--7-(7)--7--7-----7-----7--7-(7)--7--7----||--7-----7--7-(7)--7--7-----7-----7--7-(7)--7--7----|
|
|-11-10---------------------------------------------||-------14-13-12--11-10-----------------------------||-----------------------13-12-11-10-----------------||-----------------------------------14-13--12-11-10-||---------------------------------------------------||---------------------------------------------------|
|
|-20-19-18-17---------------------------------------||-------------21--20-19-18--------------------------||--------------------------21-20-19-18--------------||--------------------------------------22--21-20-19-||---------------------------------------------------||---------------------------------------------------|
Db6 Dbb5|-----------------------------------------------------|||-----------------------------------------------------|||-----------------------------------------------------|||-11----11-11-(11)-11-11----11----11-11-(11)-11-11----|||-12----12-12-(12)-12-12----10----10-10-(10)-10-10----|||-11----11-11-(11)-11-11----11----11-11-(11)-11-11----||
|
|-10--------------------------------------------------|||----14-13-12--11--10---------------------------------|||---------------------13-12-11-10---------------------|||---------------------------------14-13--12--11-10--9-|||-----------------------------------------------------|||-----------------------------------------------------||
|
|-19-18-17-16-----------------------------------------|||--------------20--19-18-17---------------------------|||---------------------------20-19-18-17---------------|||----------------------------------------21--20-19-18-|||-----------------------------------------------------|||-----------------------------------------------------||
Verse D.S. al Coda N.C. F5 G5 Ab5 G5 F5G5 PM--------| PM-------| PM----| PM----| PM----||-------------------------------------|-----------------------------|||-------------------------------------|-----------------------------|||-------------------------------------|-----------------------------|||--------------3------------5---------|---6-----------5---------3-5-|||--------------3------------5---------|---6-----------5---------3-5-|||--0-----0-0-0-3-0-0---0--0-5-0-0-0-0-|---6---0-0-0-0-5-0-0-0-0-3-5-||
|
| ~~~~~~~~~~~~~~~~~~~~~~~|-------------------------------------|-----------------------------|||-13b15==============(13)-------------|-(13)r-----------------------|||-------------------------------------|-----------------------------|||-------------------------------------|-----------------------------|||-------------------------------------|-----------------------------|||-------------------------------------|-----------------------------||
|
| ~~~~~~~~~~~~~~~~~~~~~~~|-12b13==============(12)-------------|-(12)r-----------------------|||-------------------------------------|-----------------------------|||-------------------------------------|-----------------------------|||-------------------------------------|-----------------------------|||-------------------------------------|-----------------------------|||-------------------------------------|-----------------------------||
Interlude & D5 Gtr I|-----------|------------------|-----------------|--------||-----------|------------------|-----------------|--------||-----------|------------------|-----------------|--------||--0--------|--(0)-------------|---0-------------|-(0)----||--0--------|--(0)-------------|---0-------------|-(0)----||--0--------|--(0)-------------|---0-------------|-(0)----|
|
| Gtr II|-----------|------------------|-----------------|--------||-----------|------------------|-----------------|--------||-----------|------------------|-----------------|--------||-12--------|-(12)----(12)\----|-/12--------(12)s|=11-----||-----------|------------------|-----------------|--------||-----------|------------------|-----------------|--------|
D5|-----------------|-------------------|-------------|-----------|||-----------------|-------------------|-------------|-----------|||-----------------|-------------------|-------------|-----------|||--0--------------|--(0)--------------|---0---------|--(0)------|||--0--------------|--(0)--------------|---0---------|--(0)------|||--0--------------|--(0)--------------|---0---------|--(0)------||
|
| \0.5 \0.5 \0.5|-----------------|-------------------|-------------|-----------|||-----------------|-------------------|-------------|-----------|||-----------------|-------------------|-------------|-----------|||-12----(12)------|-(12)----(12)------|-(12)--------|-(12)------|||-----------------|-------------------|-------------|-----------|||-----------------|-------------------|-------------|-----------||
N.C. F5 G5 Ab5 G5 F5G5 PM----| PM----| PM----| PM----| PM----||-----------------------------|---------------------------||-----------------------------|---------------------------||-----------------------------|---------------------------||---------3---------5---------|--6----------5---------3-5-||---------3---------5---------|--6----------5---------3-5-||-0-0-0-0-3-0-0-0-0-5-0-0-0-0-|--6--0-0-0-0-5-0-0-0-0-3-5-|
|
| \4|-----------------------------|---------------------------||-----------------------------|---------------------------||-----------------------------|---------------------------||-0---------------------------|-(0)-----------------------||-0---------------------------|-(0)-----------------------||-0---------------------------|-(0)-----------------------|
N.C. F5 G5 Ab5 G5 F5G5 PM-----| PM----| PM----| PM----| PM----||-------------------------------|------------------------------||-------------------------------|------------------------------||-------------------------------|------------------------------||-----------3---------5---------|--6----------5---------3-5----||-----------3---------5---------|--6----------5---------3-5----||--0--0-0-0-3-0-0-0-0-5-0-0-0-0-|--6--0-0-0-0-5-0-0-0-0-3-5----|
|
|-------------------------------|------------------------------||-------------------------------|------------------------------||-------------------------------|------------------------------||-(0)---------------------------|-(0)--------------------------||-(0)---------------------------|-(0)--------------------------||-(0)---------------------------|-(0)--------------------------|
N.C. F5 G5 Ab5 G5 F5G5 PM----| PM----| PM----| PM----| PM----||-----------------------------|---------------------------||-----------------------------|---------------------------||-----------------------------|---------------------------||---------3---------5---------|--6----------5---------3-5-||---------3---------5---------|--6----------5---------3-5-||-0-0-0-0-3-0-0-0-0-5-0-0-0-0-|--6--0-0-0-0-5-0-0-0-0-3-5-|
|
|-----------------------------|---------------------------||-----------------------------|---------------------------||-----------------------------|---------------------------||-0---------------------------|-(0)-----------------------||-0---------------------------|-(0)-----------------------||-0---------------------------|-(0)-----------------------|
N.C. F5 G5 Ab5 G5 F5G5 PM----| PM----| PM----| PM----| PM----||-----------------------------|-----------------------------|||-----------------------------|-----------------------------|||-----------------------------|-----------------------------|||---------3---------5---------|-6----------5---------3-5----|||---------3---------5---------|-6----------5---------3-5----|||-0-0-0-0-3-0-0-0-0-5-0-0-0-0-|-6--0-0-0-0-5-0-0-0-0-3-5----||
|
|-----------------------------|-----------------------------|||-----------------------------|-----------------------------|||-----------------------------|-----------------------------|||-7---------------------------|-x\--------------------------|||-7---------------------------|-x\--------------------------|||-7---------------------------|-x\--------------------------||
Breakdown D5C5F5G5AbG5F5D5 F5G5AbG5F5D5 D5C5F5G5AbG5F5D5 F5G5AbG5F5D5 Gtrs I, II||------------------|----------------|-----------------|------------------||||o-----------------|----------------|-----------------|-----------------o||||--7-5-------------|----------------|-7-5-------------|------------------||||--7-5-3-5-6-5-3-0-|-0-3-5-6-5-3-0--|-7-5-3-5-6-5-3-0-|-0-3-5-6-5-3-0----||||o-5-3-3-5-6-5-3-0-|-0-3-5-6-5-3-0--|-5-3-3-5-6-5-3-0-|-0-3-5-6-5-3-0---o||||------3-5-6-5-3-0-|-0-3-5-6-5-3-0--|-----3-5-6-5-3-0-|-0-3-5-6-5-3-0----||
D5 C5 F5 G5 Ab5G5 F5 D5 F5 G5 Ab5G5 F5 D5 Gtrs I, II||--------------------------|-----------------------|||o-------------------------|-----------------------|||---7--5-------------------|-----------------------|||---7--5--3--5--6--5--3--0-|--0--3--5--6--5--3--0--|||o--5--3--3--5--6--5--3--0-|--0--3--5--6--5--3--0--|||---------3--5--6--5--3--0-|--0--3--5--6--5--3--0--|
|
| Gtr III||--10----------------------|-----------------------|||o----13-------------------|-----------------------|||--------10-12-13-12-10----|----10-12-13-12-10-----|||-----------------------12-|-12----------------12--|||o-------------------------|-----------------------|||--------------------------|-----------------------|
D5 C5 F5 G5 Ab5G5 F5 D5 F5 G5 Ab5G5 F5 D5|-------------------------|-------------------------|||-------------------------|------------------------o|||--7--5-------------------|-------------------------|||--7--5--3--5--6--5--3--0-|--0--3--5--6--5--3--0----|||--5--3--3--5--6--5--3--0-|--0--3--5--6--5--3--0---o|||--------3--5--6--5--3--0-|--0--3--5--6--5--3--0----||
|
|-10----------------------|-------------------------|||----13-------------------|------------------------o|||-------10-12-13-12-10----|----10-12-13-12-10-------|||----------------------12-|-12----------------12----|||-------------------------|------------------------o|||-------------------------|-------------------------||
D.S.S. al Dbl. Coda Bb5 G5 Ab5A5 Bb5 A5 Bb5 B5 C5|------------|---------------|------------------|||------------|---------------|------------------|||------------|---------------|------------------|||--8------8S=|=5--6---7---8--|--7---8---9--10\--|||--8------8S=|=5--6---7---8--|--7---8---9--10\--|||--8------8S=|=5--6---7---8--|--7---8---9--10\--||
|
|------------|---------------|------------------|||-11---------|-8--9--10--11--|-10--11--12--13---|||------------|---------------|------------------|||------------|---------------|------------------|||------------|---------------|------------------|||------------|---------------|------------------||
Chorus && A5 E5 Gtr I||------------------------------------|-----------------------------------|||o-----------------------------------|-----------------------------------|||------------------------------------|--9--9-9-(9)-9--9--9--9-9-(9)-9--9-|||---7--7-7-(7)-7--7--7--7-7-(7)-7--7-|--9--9-9-(9)-9--9--9--9-9-(9)-9--9-|||o--7--7-7-(7)-7--7--7--7-7-(7)-7--7-|--7--7-7-(7)-7--7--7--7-7-(7)-7--7-|||---7--7-7-(7)-7--7--7--7-7-(7)-7--7-|-----------------------------------|
|
| Gtr II||----------------17---------------17-|---------------16---------------16-|||o---------17---------------17-------|---------17---------------17-------|||-----18---------------18------------|----16---------------16------------|||--19---------------19---------------|-18---------------18---------------|||o-----------------------------------|-----------------------------------|||------------------------------------|-----------------------------------|
D5|-----------------------------------|------------------------------------|||-----------------------------------|-----------------------------------o|||--7--7-7-(7)-7--7--7--7-7-(7)-7--7-|--7--7-7-(7)-7--7--7--7-7-(7)-7--7--|||--7--7-7-(7)-7--7--7--7-7-(7)-7--7-|--7--7-7-(7)-7--7--7--7-7-(7)-7--7--|||--5--5-5-(5)-5--5--5--5-5-(5)-5--5-|--5--5-5-(5)-5--5--5--5-5-(5)-5--5-o|||-----------------------------------|------------------------------------||
|
|---------------14---------------14-|---------------14-14------16--------|||---------15---------------15-------|---------15----------15---------17-o|||----14---------------14------------|----14------------------------------|||-16---------------16---------------|-16---------------------------------|||-----------------------------------|-----------------------------------o|||-----------------------------------|------------------------------------||
B5 A5|-----------------------------------|-----------------------------------||-----------------------------------|-----------------------------------||-----------------------------------|-----------------------------------||--9--9-9-(9)-9--9--9--9-9-(9)-9--9-|--7--7-7-(7)-7--7--7--7-7-(7)-7--7-||--9--9-9-(9)-9--9--9--9-9-(9)-9--9-|--7--7-7-(7)-7--7--7--7-7-(7)-7--7-||--9--9-9-(9)-9--9--9--9-9-(9)-9--9-|--7--7-7-(7)-7--7--7--7-7-(7)-7--7-|
|
|---------------19---------------19-|---------------17---------------17-||---------19---------------19-------|---------17---------------17-------||----19---------------19------------|----18---------------18------------||-21---------------21---------------|-19---------------19---------------||-----------------------------------|-----------------------------------||-----------------------------------|-----------------------------------|
E5 D5|-----------------------------------|-----------------------------------||-----------------------------------|-----------------------------------||--9--9-9-(9)-9--9--9--9-9-(9)-9--9-|--7--7-7-(7)-7--7--7--7-7-(7)-7--7-||--9--9-9-(9)-9--9--9--9-9-(9)-9--9-|--7--7-7-(7)-7--7--7--7-7-(7)-7--7-||--7--7-7-(7)-7--7--7--7-7-(7)-7--7-|--5--5-5-(5)-5--5--5--5-5-(5)-5--5-||-----------------------------------|-----------------------------------|
|
|---------------16---------------16-|---------------14---------------14-||---------17---------------17-------|---------15---------------15-------||----16---------------16------------|----14---------------14------------||-18---------------18---------------|-16---------------16---------------||-----------------------------------|-----------------------------------||-----------------------------------|-----------------------------------|
A5 D5 G#5D5 F#5D5 E5 D5 C#5D5|---------------------------|--------------------------||---------------------------|--------------------------||-14--7-(7)--7-13--7-(7)--7-|-11--7-(7)--7--9--7--6--7-||-14--7-(7)--7-13--7-(7)--7-|-11--7-(7)--7--9--7--6--7-||-12--5-(5)--5-11--5-(5)--5-|--9--5-(5)--5--7--5--4--5-||---------------------------|--------------------------|
|
|-17-----------16-----------|-14-----------------------||----15-----15----15-----15-|----15-----15-17-15-14-15-||-------14-----------14-----|-------14-----------------||---------------------------|--------------------------||---------------------------|--------------------------||---------------------------|--------------------------|
C#5 F6|----------------------------|------------------------------|||----------------------------|------------------------------|||--6--6-(6)--6-10-10-(10)-10-|-10-10-(10)-10-10-10-(10)-10--|||--6--6-(6)--6-11-11-(11)-11-|-11-11-(11)-11-11-11-(11)-11--|||--4--4-(4)--4--8--8--(8)--8-|--8--8--(8)--8--8--8--(8)--8--|||----------------------------|------------------------------||
|
|-16-----------14------------|-13---------------------------|||----14-----14----14------14-|----14------14-15-14----------|||-------13------------13-----|--------13------------13------|||----------------------------|--------------------------15--|||----------------------------|------------------------------|||----------------------------|------------------------------||
Outro Moderately Slow Rock Q.=55 F#5 D5 9/8 Gtr I|------------------------||----------------------||------------------------||----------------------||------------------------||--7----7--7--7--7---7-||--4---4--4--4--4--4---4-||--7----7--7--7--7---7-||--4---4--4--4--4--4---4-||--5----5--5--5--5---5-||--4---4--4--4--4--4---4-||----------------------|
|
| Gtr II| ~~ ~~ ~~ ~~|------------------------||----------------------||--7---7--6--7--9-10---5-||--6----6--5--6--8--/6-||------------------------||----------------------||------------------------||----------------------||------------------------||----------------------||------------------------||----------------------|
|
| Gtr IV|------------------------||----------------------||-19--19-18-19-21-22--17-||-18---18-17-18-20--18-||------------------------||----------------------||-16--16-15-16-18-19--14-||-15---15-14-15-17--15-||------------------------||----------------------||------------------------||----------------------|
Db5 C5 6/8|----------------------|------------------||----------------------|------------------||--6----6--6--6--6---6-|--5------5--5--5--||--6----6--6--6--6---6-|--5------5--5--5--||--4----4--4--4--4---4-|--3------3--3--3--||----------------------|------------------|
|
| ~~ ~~ ~~|----------------------|------------------||--6----6--5--6--8--/6-|--6---6--5--6--8--||----------------------|------------------||----------------------|------------------||----------------------|------------------||----------------------|------------------|
|
|----------------------|------------------||-18---18-17-18-20--18-|-18--18-17-18-20--||----------------------|------------------||-15---15-14-15-17--15-|-15--15-14-15-17--||----------------------|------------------||----------------------|------------------|
F5 Db5|-----------------------------|--------------------------||-----------------------------|--------------------------||-----------------------------|---6-6-6---6---6--6--6--6-||--3-3-3--3---3--3-3-3--3---3-|---6-6-6---6---6--6--6--6-||--3-3-3--3---3--3-3-3--3---3-|---4-4-4---4---4--4--4--4-||--3-3-3--3---3--3-3-3--3---3-|--------------------------|
|
| ~~ ~~ ~~~|-----------------------------|--------------------------||-/9-----(9)\---/9-----(9)\---|-/11-----(11)\----9-11-13-||-----------------------------|--------------------------||-----------------------------|--------------------------||-----------------------------|--------------------------||-----------------------------|--------------------------|
|
|-16------------16------------|--18-------------16-18-20-||-----------------------------|--------------------------||-13------------13------------|--15-------------13-15-17-||-----------------------------|--------------------------||-----------------------------|--------------------------||-----------------------------|--------------------------|
Bb5|---------------------------------||---------------------------------||---3-3-3---3---3---3-3-3---3---3-||---3-3-3---3---3---3-3-3---3---3-||---1-1-1---1---1---1-1-1---1---1-||---------------------------------|
|
| ~~~ ~~~|---------------------------------||-/14-----(14)\---/14-----(14)\---||---------------------------------||---------------------------------||---------------------------------||---------------------------------|
|
|--21--------------21-------------||---------------------------------||--18--------------18-------------||---------------------------------||---------------------------------||---------------------------------|
A5|-----------------|------------|----------|--------*||-----------------|------------|----------|--------*||--2--------------|--(2)-------|-(2)------|-(2)----*||--2--------------|--(2)-------|-(2)------|-(2)----*||--0--------------|--(0)-------|-(0)------|-(0)----*||-----------------|------------|----------|--------*|
|
| >| ~~~~~~~~~~~~~|-----------------|------------|----------|--------*||-16b17====(16)---|-(16)r------|----------|--------*||-----------------|------------|----------|--------*||-----------------|------------|----------|--------*||-----------------|------------|----------|--------*||-----------------|------------|----------|--------*|
|
|-21--------------|-(21)-------|----------|--------*||-----------------|------------|----------|--------*||-18--------------|-(18)-------|----------|--------*||-----------------|------------|----------|--------*||-----------------|------------|----------|--------*||-----------------|------------|----------|--------*|
**************************************************************************** Burn It Down Gtr III PM--------------------------------------------|
4x||-------------------------|--------------------------||||o------------------------|-------------------------o||||-------------------------|--------------------------||||-------------------------|--------------------------||||o-0-0-0--0-0-0-0-0-0-0-0-|-0-0-0--0-0-0-0-0-0-0-0--o||||--0-0-0--0-0-0-0-0-0-0-0-|-0-0-0--0-0-0-0-0-0-0-0---||
Lead Harmony $ C5 G5 F5 G5 4/4 Gtr I||--12--------12-10--------10-|-12--------12-13-10-----13--||||o-------13-----------12-----|-------13-----------12-----o||||-----12-----------12--------|----14----------------------||||----------------------------|----------------------------||||o---------------------------|---------------------------o||||----------------------------|----------------------------||
|
| Gtr II||---8---------8--7---------7-|--8---------8-10--7-----10--||||o-------10------------8-----|-------10------------8-----o||||------9------------9--------|----10----------------------||||----------------------------|----------------------------||||o---------------------------|---------------------------o||||----------------------------|----------------------------||
|
| Gtr III||----------------------------|----------------------------||||o---------------------------|---------------------------o||||---5--5-(5)--5--------------|----------------------------||||---5--5-(5)--5--5--5-(5)--5-|--3--3-(3)--3--5--5-(5)--5--||||o--3--3-(3)--3--5--5-(5)--5-|--3--3-(3)--3--5--5-(5)--5-o||||----------------5--5-(5)--5-|--3--3-(3)--3--5--5-(5)--5--||
F5 G5 A5 G/B|--------------10----13--10-|-12--------12-13--------17--||-13--------13----12--------|-------13--------12-15------||-------14------------------|----14----------------------||----14---------------------|----------------------------||---------------------------|----------------------------||---------------------------|----------------------------|
|
|--------------------10-----|--------------10--------13--||-10--------10-12--------12-|-13--------13-------12------||-------10--------12--------|-------14--------12---------||----10---------------------|----14----------------------||---------------------------|----------------------------||---------------------------|----------------------------|
|
|---------------------------|----------------------------||---------------------------|----------------------------||---------------------------|---------------4--4-(4)--4--||--3--3-(3)--3--5--5-(5)--5-|--7--7-(7)--7--5--5-(5)--5--||--3--3-(3)--3--5--5-(5)--5-|--7--7-(7)--7--2--2-(2)--2--||--3--3-(3)--3--5--5-(5)--5-|--7--7-(7)--7---------------|
C5 E5 A5 G5|-15--------15--------15-----|---------------------------||-------17-----17---------17-|-13--------13-12--------12-||----17-----------17---------|-------14-----------12-----||----------------------------|----14-----------14--------||----------------------------|---------------------------||----------------------------|---------------------------|
|
|-12--------12-15-12-/19--15-|-17------------------------||-------13-------------------|-----------17-15--------15-||----12----------------------|-------17-----------16-----||----------------------------|----19-----------17--------||----------------------------|---------------------------||----------------------------|---------------------------|
|
|----------------------------|---------------------------||----------------------------|---------------------------||--5--5-(5)--5--9--9--(9)--9-|---------------------------||--5--5-(5)--5--9--9--(9)--9-|--7--7-(7)--7--5--5-(5)--5-||--3--3-(3)--3--7--7--(7)--7-|--7--7-(7)--7--5--5-(5)--5-||----------------------------|--7--7-(7)--7--5--5-(5)--5-|
Verse A5 Bb5 A5 C5 A5 Bb5 A5 ~~|--------------------------|-------------------------||--------------------------|-------------------------||-14-----------------------|-------------------------||--------------------------|-------------------------||--------------------------|-------------------------||--------------------------|-------------------------|
|
| ~~|--------------------------|-------------------------||--------------------------|-------------------------||-17-----------------------|-------------------------||--------------------------|-------------------------||--------------------------|-------------------------||--------------------------|-------------------------|
|
| Gtr III| PM| PM| PM| PM| PM| PM----| PM||--------------------------|-------------------------||--------------------------|-------------------------||--2-----3-----2-----5-----|-2-----3---------2-----2-||--2-----3-----2-----5-----|-2-----3---------2-----2-||--0-0-0-1-0-0-0-0-0-3-0-0-|-0-0-0-1-0-0-0-0-0-0-0-0-||--------------------------|-------------------------|
A5 Bb5 A5 C5 A5 Bb5 A5 Gtr III PM| PM| PM| PM| PM| PM----| PM|||--------------------------|--------------------------||||o-------------------------|-------------------------o||||--2-----3-----2-----5-----|-2-----3---------2-----2--||||--2-----3-----2-----5-----|-2-----3---------2-----2--||||o-0-0-0-1-0-0-0-0-0-3-0-0-|-0-0-0-1-0-0-0-0-0-0-0-0-o||||--------------------------|--------------------------||
A5 Bb5 A5 C5 A5 Bb5 N.C. Gtr III PM| PM| PM| PM| PM| PM||-------------------------|---------------------||-------------------------|---------------------||-2-----3-----2-----5-----|-2-----3-------------||-2-----3-----2-----5-----|-2-----3-------------||-0-0-0-1-0-0-0-0-0-3-0-0-|-0-0-0-1-0-0-0-------||-------------------------|---------------5-3-2-|
Chorus D5 A/C# Gtr I||----------------------|------------------------|||o---------------------|------------------------|||--7-7-(7)-7-7-7-(7)-7-|-6-6-(6)-6-14-14-14--14-|||--7-7-(7)-7-7-7-(7)-7-|-7-7-(7)-7--x--x--x---x-|||o-5-5-(5)-5-5-5-(5)-5-|-4
Tap to rate this tab
 
# A B C D E F G H I J K L M N O P Q R S T U V W X Y Z