Avulsed - Filth Injected tab

Band: Avulsed
Album: Gorespattered Suicide
Song: Filth Injected
Tuning: Bb F Bb D# G C
Record Label: Metal Age Productions

----------------------|----------------------|----------------------|-9---6---4---2--------|-6-8-4-6-2-4-0-2------|---8---6---4---2------|X2let notes ring
-------------------------------------------------------------------|-------------------------------------------------------------------|-------------------------------------------------------------------|-------------------------------------------------------------------|-7----5/7---------5-4-2-4-----7-----5/7---------7-5-4-5-7-5-4-5-1--|---22-----2222-22---------22-----22-----2222-22--------------------|X2
-------------------------------------------------------------------|-------------------------------------------------------------------|-------------------------------------------------------------------|-------------------------------------------------------------------|-7----5/7---------5-4-2-4------7----5/7---------7-5-4-5-7-5-4-5-1--|---44-----4444-44---------44-----44-----4444-44--------------------|
-------------------------------------------------------------------|-------------------------------------------------------------------|-------------------------------------------------------------------|-------------------------------------------------------------------|-7----5/7---------5-4-2-4------7----5/7---------7-5-4-5-7-5-4-5-1--|---33-----3333-33---------33-----33-----3333-33--------------------|
------------------------------------------|------------------------------------------|------------------------------------------|-5---------------------------10\9---------|-3-2222222222222222222222222--8\7--7*^----|---2222222222222222222222222--------------|Repeats several times and changes rythm after a few
---------------------------------|---------------------------------|---------------------------------|---------------------------------|-6-7-6-3-6-3-2-0-----------------|-----------------2-5-7-5-2-4-5---|X2
--------------------------------------------------------------------------|--------------------------------------------------------------------------|-----------------------------------------------------------------6-5------|-999999999999999999999999988888888833333333333333333333-8-7-8-10-----8-7--|-777777777777777777777777766666666611111111111111111111-------------------|--------------------------------------------------------------------------| trem.............
--------------------|--------------------|--------------------|--------------------|-8-7-5-7-5-4-5-4-2--|-8-7-5-7-5-4-5-4-2--|fill riff
--------------------------------|--------------------------------|--------------------------------|--------------------------------|-2-22222222-8-2222-5------------|-2-22222222-8-2222-5-5*trill*7--|Repeat
------------------|------------------|------------------|------------------|-5-4-5-7-8-7-5-7--|-5-4-5-7-8-7-5-7--|fill riff 2
--------------------------------------------------------------------------|--------------------------------------------------------------------------|-----------------------------------------------------------------6-5------|-999999999999999999999999988888888833333333333333333333-8-7-8-10-----8-7--|-777777777777777777777777766666666611111111111111111111-------------------|--------------------------------------------------------------------------| trem.............
----------------------------|----------------------------|-------------------------6--|-----------------7-7-7-7-x--|-8-7-5-4-5-4-2-4-5-5-5-5-4--|-8-7-5-4-5-4-2-4------------|fill riff 3
----------------------------------------------------|----------------------------------------------------|----------------------------------------------------|-----2-3-2-------------------2-3-2--7-6-9-10-9-7-6--|-3-2-------5-4-5-7-8-7-5-4-2------------------------|-3-2-----------------------2------------------------|
-------------------------------------|-------------------------------------|----------------------------------6--|---2-3-2------------------7-7-7-7-x--|-2-------5-4-5-7-8-7-5-4--5-5-5-5-4--|-2-----------------------------------|Repeat a couple o times
--------------------------------|--------------------------------|--------------------------------|--------------------------------|-2-22222222-8-8888-5------------|-2-22222222-8-8888-5-5*trill*7--|Repeat
-------------------------------------------------------------------------------|-------------------------------------------------------------------------------|----------------------------------33333333333333--------------55555555555555---|----------------------------------xxxxxxxxxxxxxx--------------xxxxxxxxxxxxxx---|-5----8----7-5-7-4--44444444444444111111111111114444444444444433333333333333---|-5----8----7-5-7-4--44444444444444--------------44444444444444-----------------|let ring Repeat
------------------------------------------|------------------------------------------|------------------------------------------|-5---------------------------10\9---------|-3-2222222222222222222222222--8\7--7*^----|---2222222222222222222222222--------------|Repeat
-------------------------------------------------------------------------------|-------------------------------------------------------------------------------|----------------------------------33333333333333--------------55555555555555---|----------------------------------xxxxxxxxxxxxxx--------------xxxxxxxxxxxxxx---|-5----8----7-5-7-4--44444444444444111111111111114444444444444433333333333333---|-5----8----7-5-7-4--44444444444444--------------44444444444444-----------------|let ring Repeat
----------------------------|----------------------------|-------------------------6--|-----------------7-7-7-7-x--|-8-7-5-4-5-4-2-4-5-5-5-5-4--|-8-7-5-4-5-4-2-4------------|fill riff 3
----------------------------------------------------|----------------------------------------------------|----------------------------------------------------|-----2-3-2-------------------2-3-2--7-6-9-10-9-7-6--|-3-2-------5-4-5-7-8-7-5-4-2------------------------|-3-2-----------------------2------------------------|
-------------------------------------|-------------------------------------|----------------------------------6--|---2-3-2------------------7-7-7-7-x--|-2-------5-4-5-7-8-7-5-4--5-5-5-5-4--|-2-----------------------------------|Repeat a couple o times
--------|--------|--------|--------|--3--2--|--3--2--|
Tap to rate this tab
 
# A B C D E F G H I J K L M N O P Q R S T U V W X Y Z