Aya Hirano – Lost My Music tab ver. 2

|12----------------------||15----------------------||------------------------||------------------------||------------------------||------------------------|
|12----------------------||15-----15-15-12---------||----------------14------||------------------------||------------------------||------------------------|
|------------------------||------------------------||-14-14-12------9-12-12--||----------14------------||-------------5----------||------------------------|
|------------------------||------14----------------||-12-12---13-10----------||------------------------||------------------------||------------------------|
|------------------------||----14------------------||-16---16-0-13-----------||------------------------||------------------------||------------------------|
|----------------------------------||-------------------------------0--||-0-13-0------------------------0--||-------16-15-14-0-13-0---------0-0||---------------------0-14-0-16---0||----------------------------------|
|-16-17-19-16-17-19-16------------------||----------------------19-17-16-17-19-16||---------------------------------------||---------------------------------------||---------------------------------------||---------------------------------------|
|-----------------------------||-17-16-16--------------------||----------18-16-18-16-------0||----------------------18-17-0||-----------------------------||-----------------------------|
|------------------------||------------------------||------------------------||--14-14-14-14-14-14-----||------------------------||------------------------|
|------------------------||------------------------||-------13-13-13-13------||-14-14-------------14---||------------------------||------------------------|
|------------------------||------------------------||------------------------||-14-14-14-14-14-14------||------------------------||------------------------|
|------------------------------------------||------------------------------------------||-16-14-13-16-14-13------------------------||-------------------16-14-13-16-13-16------||-------------------------------------14---||----------------------------------------12|
|------------------------||------------------------||------------------------||--14-14-14-14-14-14-----||------------------------||------------------------|
|------------------------||------------------------||-------13-13-13-13------||-14-14-------------14---||------------------------||------------------------|
|-------------19---------||------------------------||------------------------||-14-14-14-14------------||------------------------||------------------------|
|-19-17-16-14----------------------------------------||-------------19-17-16-14-19-17-16-14----------------||--------------------------------------20-18-16-18-16||----------------------------------------------------||----------------------------------------------------||----------------------------------------------------|
So try using this and listening to the song. If you have any questions ask me at all.spam.is.here@googlemail.com
Please rate this tab:
x1.0