Babyface - When Can I See You Again tab

Babyface
When Can I See You Again
(From the 1993 Album FOR THE COOL IN YOU)
Transcribed by Soch H.

Gtr I (Eb Ab Db Gb Bb Eb) - 'Babyface '

Gtr IIntro:|---------|---------|-----------------|---------0------------||---------|---------|-0-------------3-|-(3)-------3----------||---------|---------|---2-------0-----|-------2-------2-(2)--||---------|---------|-----0-------2---|-----4-------4--------||---------|---------|---------------2-|-(2)------------------||---------|---------|-3-----3-0-------|----------------------|
|---------------!2-(2)-|-(2)------|-----------------|---------0------------||-0-------------!3-(3)-|-(3)------|-0-------------3-|-(3)-------3----------||---2-------0---!2-(2)-|-(2)------|---2-------0-----|-------2-------2-(2)--||-----0-------2-!4-(4)-|-(4)------|-----0-------2---|-----4-------4--------||---------------!2-(2)-|-(2)------|---------------2-|-(2)------------------||-3-----3-0------------|----------|-3-----3-0-------|----------------------|
|-----------------|---------0-----------||-0-------------3-|-(3)-------3---------||---2-------0-----|-------2-------2-(2)-||-----0-------2---|-----4-------4-------||---------------2-|-(2)-----------------||-3-----3-0-------|---------------------|
|-----------------|---------0-----------||-0-------------3-|-(3)-------3---------||---2-------0-----|-------2-------2-(2)-||-----0-------2---|-----4-------4-------||---------------2-|-(2)-----------------||-3-----3-0-------|---------------------|
|-----------------|--------0-------|-----------------|---------------------||-0-------------3-|(3)-------3-----|-8-------7-----8-|-(8)-----8-(8)-------||---2-------0-----|------2-------2-|---9-------8-----|-----9---------9-----||-----0-------2---|----4-------4---|-----9-------9---|-------9---------9---||---------------2-|(2)-------------|-7-----7-6-----7-|-(7)-----------------||-3-----3-0-------|----------------|-----------------|---------9-(9)-----5-|
|------------------------|----------------|---------|-------------------||-------------5-5--------|-5-(5)-(5)------|---------|-5---5---3---0--1--||-5-----------5-5--------|-5-(5)-(5)------|---------|-----5-----0-------||---7---------7-7--------|-5-(5)-(5)------|---------|---5-5-------------||-----5h7-(7)-7-7--0-(0)-|-3-(3)-(3)------|---------|-3---3-3-2------0--||------------------------|----------------|---------|-------------------|
|---------0-------------|----------------------|---------0-----------------||-(1)-------------------|-5---5----3---0-(0)-1-|-(1)-----------------------||-------2----------0----|-----5------0---------|-------2----------0--------||-----2-----2--0h2------|---5-5----------------|-----2-----2--0h2----------||-(0)----------------0--|-3---3-3--2---------0-|-(0)----------------0-(0)--||-----------------------|----------------------|---------------------------|
|-------------------------|---------0-------------|-0----------------------||-5---5-------3---0-(0)-1-|-(1)-------------------|-0---------!4-(4)-(4)---||-----5---------0---------|-------2----------0----|-----4-(4)-!4-(4)-(4)---||---5-5-------------------|-----2-----2--0h2------|---4-------!4-(4)-(4)---||-3---3-3-(3)-2---------0-|-(0)----------------0--|-----------!2-(2)-(2)---||-------------------------|-----------------------|-2----------------------|
|--------------------0-(0)-|-(0)---------|---------------------||--------------------------|-------------|--------!5-(5)-(5)---||---0h4---0h4---0-4--------|-------------|-----2--!5-(5)-(5)---||-2-----0------------------|-------------|---2----!4-(4)-(4)---||-------------4------------|-------------|-0------!5-(5)-(5)---||--------------------------|-------------|---------------------|
|---------|-----------------|---------0-----------|-----------------||---------|-0-------------3-|-(3)-------3---------|-0-------------3-||---------|---2-------0-----|-------2-------2-(2)-|---2-------0-----||---------|-----0-------2---|-----4-------4-------|-----0-------2---||---------|---------------2-|-(2)-----------------|---------------2-||---------|-3-----3-0-------|---------------------|-3-----3-0-------|
|---------0-----------|-----------------||-(3)-------3---------|-0-------------3-||-------2-------2-(2)-|---2-------0-----||-----4-------4-------|-----0-------2---||-(2)-----------------|---------------2-||---------------------|-3-----3-0-------|
|---------0-----------|-----------------||-(3)-------3---------|-0-------------3-||-------2-------2-(2)-|---2-------0-----||-----4-------4-------|-----0-------2---||-(2)-----------------|---------------2-||---------------------|-3-----3-0-------|
|---------0--------|-----------------||-(3)-------3------|-8-------7-----8-||-------2-------2--|---9-------8-----||-----4-------4----|-----9-------9---||-(2)--------------|-7-----7-6-----7-||------------------|-----------------|
|----------------------|-------------------------||-(8)-----8-(8)--------|-------------5-5---------||-----9---------9------|-5-----------5-5---------||-------9---------9----|---7---------7-7---------||-(7)------------------|-----5h7-(7)-7-7--0-(0)--||---------9-(9)------5-|-------------------------|
|------------------------------|-----------|------------------------||-!5--(5)-(5)-(5)-(5)-(5)-(5)--|---------5-|---5-------3----0-(0)-1-||-!5--(5)-(5)-(5)-(5)-(5)-(5)--|-----------|---5----------0---------||-!5--(5)-(5)-(5)-(5)-(5)-(5)--|-----------|-5-5--------------------||-!3--(3)-(3)-(3)-(3)-(3)-(3)--|---------3-|---3-3-(3)-2----------0-||------------------------------|-----------|------------------------|
|--------0------------|-------------------------|---------0----------------||(1)------------------|-5---5-------3---0-(0)-1-|-(1)----------------------||------2-------0------|-----5---------0---------|-------2----------0-------||----2-----0h2--------|---5-5-------------------|-----2-----2--0h2---------||(0)-------------0-(0)|-3---3-3-(3)-2---------0-|-(0)----------------0-(0)-||---------------------|-------------------------|--------------------------|
|-------------------------|---------0-------------|-0----------------------||-5---5-------3---0-(0)-1-|-(1)-------------------|-0----------!4-(4)-(4)--||-----5---------0---------|-------2----------0----|-----4-(4)--!4-(4)-(4)--||---5-5-------------------|-----2-----2--0h2------|---4--------!4-(4)-(4)--||-3---3-3-(3)-2---------0-|-(0)----------------0--|------------!2-(2)-(2)--||-------------------------|-----------------------|-2----------------------|
|------------------------0-(0)-|-(0)---------|-------------------------||------------------------------|-------------|--------!5-(5)-(5)-(5)---||---0-(0)---0-(0)---0-4--------|-------------|-----2--!5-(5)-(5)-(5)---||-2-------0--------------------|-------------|---2----!4-(4)-(4)-(4)---||-----------------4------------|-------------|-0------!5-(5)-(5)-(5)---||------------------------------|-------------|-------------------------|
|---------|-----------------|---------0-----------|-----------------||---------|-0-------------3-|-(3)-------3---------|-0-------------3-||---------|---2-------0-----|-------2-------2-(2)-|---2-------0-----||---------|-----0-------2---|-----4-------4-------|-----0-------2---||---------|---------------2-|-(2)-----------------|---------------2-||---------|-3-----3-0-------|---------------------|-3-----3-0-------|
|---------0--------|-----------------||-(3)-------3------|-8-------7-----8-||-------2-------2--|---9-------8-----||-----4-------4----|-----9-------9---||-(2)--------------|-7-----7-6-----7-||------------------|-----------------|
|----------------------|--------------------||-(8)-----8-(8)--------|-------------5-5----||-----9---------9------|-5-----------5-5----||-------9---------9----|---7---------7-7----||-(7)------------------|-----5h7-(7)-7-7--0-||---------9-(9)------5-|--------------------|
|-------------------------|------------------------|---------0-------------||-----!5-(5)-(5)-(5)----5-|---5-------3----0-(0)-1-|-(1)-------------------||-----!5-(5)-(5)-(5)------|---5----------0---------|-------2----------0----||-----!5-(5)-(5)-(5)------|-5-5--------------------|-----2-----2--0h2------||-(0)-!3-(3)-(3)-(3)----3-|---3-3-(3)-2----------0-|-(0)----------------0--||-------------------------|------------------------|-----------------------|
|----------------------|---------0-------------|----------------------||-5---5-------3---0--1-|-(1)-------------------|-5---5-------3---0--1-||-----5---------0------|-------2----------0----|-----5---------0------||---5-5----------------|-----2-----2--0h2------|---5-5----------------||-3---3-3-(3)-2------0-|-(0)----------------0--|-3---3-3-(3)-2------0-||----------------------|-----------------------|----------------------|
|---------0-------------|-0----------------------||-(1)-------------------|-0---------!4-(4)-(4)---||-------2----------0----|-----4-(4)-!4-(4)-(4)---||-----2-----2--0h2------|---4-------!4-(4)-(4)---||-(0)----------------0--|-----------!2-(2)-(2)---||-----------------------|-2----------------------|
|------------------------0-(0)-(0)-||----------------------------------||---0-(0)---0-(0)---0-4------------||-2-------0------------------------||-----------------4----------------||----------------------------------|
|----------|-------------------------|---------|------------------||----------|--------!5-(5)-(5)-(5)---|---------|-0-------------3--||----------|-5------!5-(5)-(5)-(5)---|---------|---2-------0------||----------|---7----!7-(7)-(7)-(7)---|---------|-----0-------2----||----------|-----7--!7-(7)-(7)-(7)---|---------|---------------2--||----------|--------!5-(5)-(5)-(5)---|---------|-3-----3-0--------|
|---------0-----------|-----------------||-(3)-------3---------|-0-------------3-||-------2-------2-(2)-|---2-------0-----||-----4-------4-------|-----0-------2---||-(2)-----------------|---------------2-||---------------------|-3-----3-0-------|
|---------0-----------|-----------------||-(3)-------3---------|-0-------------3-||-------2-------2-(2)-|---2-------0-----||-----4-------4-------|-----0-------2---||-(2)-----------------|---------------2-||---------------------|-3-----3-0-------|
|---------0---------|-----------2--(2)-|---(2)-----(2)--*||-(3)-------3-------|---------0--------|----------------*||-------2-------2---|-------2----------|----------------*||-----4-------4-----|-----0------------|----------------*||-(2)---------------|---2--------------|----------------*||-------------------|-3----------------|----------------*|
Tap to rate this tab
 
# A B C D E F G H I J K L M N O P Q R S T U V W X Y Z