Bach J S - Sarabande tab

Yngwie Malmsteen
Sarabande

D#||---------------9-------9-10----9-----------|A#||--10--------10---12-12------12---9-10------|F#||-----9----9---------------------------11-9-|C#||-------11----------------------------------|G#||-------------------------------------------|D#||-------------------------------------------|
-----------------------------9-------|--9-10----9-------------------------|----------------10--------10---12-12-|-------12---9-10--------------------|--7-6--------------9----9------------|-----------------11-9-7-6-----------|------9-7h6h7~-------11--------------|--------------------------9-7h6h7~--|-------------------------------------|------------------------------------|-------------------------------------|------------------------------------|
|---9---------9----9---------9----14-9-10----||-----10---10---10---10---10---10---------12-||*-------9--------------9--------------------||*-------------------------------------------||--------------------------------------------||--------------------------------------------|
--9--------------------9---------9----13----|----10-12-9-10----9------10---10---10----10-|---------------11---10------9---------------|--------------------------------------------|--------------------------------------------|--------------------------------------------|
-------13----14-9-10----9-----------------------|----10----10---------12---10-12-9-10-9h10h9-----|--9-----------------------------------------11--|------------------------------------------------|------------------------------------------------|------------------------------------------------|
---------------9-------9-10----9-----------|--10--------10---12-12------12---9-10------|-----9----9---------------------------11-9-|-------11----------------------------------|-------------------------------------------|-------------------------------------------|
-----------------------------9-------|--9-10----9-------------------------|----------------10--------10---12-12-|-------12---9-10--------------------|--7-6--------------9----9------------|-----------------11-9-7-6-----------|------9-7h6h7~-------11--------------|--------------------------9-7h6h7~--|-------------------------------------|------------------------------------|-------------------------------------|------------------------------------|
--9---------9----9---------9----14-9-10----|----10---10---10---10---10---10---------12-|-------9--------------9--------------------|-------------------------------------------|-------------------------------------------|-------------------------------------------|
--9--------------------9---------9----9----|----10-12-9-10----9------10---10---10---10-|---------------11---10------9--------------|-------------------------------------------|-------------------------------------------|-------------------------------------------|
-------9----14-9-10----9-----------------------|----10---10---------12---10-12-9-10-9h10h9-----|--9----------------------------------------11--|-----------------------------------------------|-----------------------------------------------|-----------------------------------------------|
---------------9-------9-10----9-----------|--10--------10---12-12------12---9-10------|-----9----9---------------------------11-9-|-------11----------------------------------|-------------------------------------------|-------------------------------------------|
-----------------------------9-------|--9-10----9-------------------------|----------------10--------10---12-12-|-------12---9-10--------------------|--7-6--------------9----9------------|-----------------11-9-7-6-----------|------9-7h6h7~-------11--------------|--------------------------9-7h6h7~--|-------------------------------------|------------------------------------|-------------------------------------|------------------------------------|
--9---------9----9---------9----14-9-10----|----10---10---10---10---10---10---------12-|-------9--------------9--------------------|-------------------------------------------|-------------------------------------------|-------------------------------------------|
--9--------------------9---------9----9----|----10-12-9-10----9------10---10---10---10-|---------------11---10------9--------------|-------------------------------------------|-------------------------------------------|-------------------------------------------|
-------9----14-9-10----9-----------------------|----10---10---------12---10-12-9-10-9h10h9-----|--9----------------------------------------11--|-----------------------------------------------|-----------------------------------------------|-----------------------------------------------|
-----------------------------------|--9--------------------------------|----10-11-6-7---6------------------|--------------9---7-9-6-7---6------|--------------------------9---8-9--|-----------------------------------|
-----------------------------------------------------------|-----------------------------------------------------------|-----------------------------------------------------------|-----------------------------------------------------11h12-|--------------------------------------------11h12h14-------|--14-14-14-14-14-14-14-14-14-14~---------14----------------|
-------------------9-10-9-9h10~----------------|-----------9-10h12----------------12-10-9-9b---|--11~---11-------------------------------------|-----------------------------------------------|-----------------------------------------------|-----------------------------------------------|
--------------------------------------------------|--------------------------------------------------|--11/9s7h6h7~---------6h7h6---6h7h6---6h7h9h7h6---|----------------------------9-------9-----------9-|--------------------------------------------------|--------------------------------------------------|
---------------------7-9-10~---7-9-10-9-10-12-9-|--------------7-9-10----------------------------|--6~----6-7-9-----------------------------------|------------------------------------------------|------------------------------------------------|------------------------------------------------|
--10-9-10-9-10-9-10-12-14-12-14-16-14-16-17-16-17-19-17-19-21-19-17h19h17----------------------------------------------------------------------------2------------------------------------------------------------------------------------------------------------------------------------------------------------------------------------------------------------------------------------------------------------------------------------------------------------
--21h17----19h16----17h14----16h12----14h11----12h9---10h7---9h5---|--------17-------16-------14-------12-------11------9------7-----5-|-------------------------------------------------------------------|-------------------------------------------------------------------|-------------------------------------------------------------------|-------------------------------------------------------------------|
----------------------------------|--3~-2h3h2------------------------|-----------4-2--------------------|---------------5-4-2-5-4-5~-------|----------------------------------|----------------------------------|
----------------------------------------------------|----------------------------------------------------|----------------------------------------------4-6-7-|--2h4h2h4h2h4h2h4h2h4h2h4h2h4h2h4-------4-6-7-------|----------------------------------------------------|----------------------------------------------------|
--------------------7-9-10-9-10-7-9----7--------------------|--5-8-5-7~---7-9-10-----------------10---9-10-7-9----9----7~|--------------------------------------------------10---10---|------------------------------------------------------------|------------------------------------------------------------|------------------------------------------------------------|
-------------7--9-----------------|-----------|--7--9---10--9--10--10-9h7-10-9h6-|--7~-0-0-0-|--7--10--11-----------------------|-----------|----------------------------------|-----------|----------------------------------|-----------|----------------------------------|-----------|
----------------------------------------------------|--2h0-0-3h0-0-5h0-0-7h0-0-8h0-0-7h0-0-12h0-0-10h0-0-|----------------------------------------------------|----------------------------------------------------|----------------------------------------------------|----------------------------------------------------|
--------------------------------------------------|--8h0-0-7h0-0-5h0-0-3h0-0-2h0-0-3h0-0-5h0-0-7h0-0-|--------------------------------------------------|--------------------------------------------------|--------------------------------------------------|--------------------------------------------------|
----------------------------------------------------|--8h0-0-7h0-0-12h0-0-10h0-0-8h0-0-7h0-0-5h0-0-3h0-0-|----------------------------------------------------|----------------------------------------------------|----------------------------------------------------|----------------------------------------------------|
----------------------------------------------------|--2h0-0-3h0-0-5h0-0-7h0-0-8h0-0-7h0-0-12h0-0-10h0-0-|----------------------------------------------------|----------------------------------------------------|----------------------------------------------------|----------------------------------------------------|
--------------------------------------------------|--8h0-0-7h0-0-5h0-0-3h0-0-2h0-0-3h0-0-5h0-0-7h0-0-|--------------------------------------------------|--------------------------------------------------|--------------------------------------------------|--------------------------------------------------|
----------------------------------------------------|--8h0-0-7h0-0-12h0-0-10h0-0-8h0-0-7h0-0-5h0-0-3h0-0-|----------------------------------------------------|----------------------------------------------------|----------------------------------------------------|----------------------------------------------------|
------------------------------------------------------------------------|--12-14-15-12-14-15-12-14-15-10-12-14-10-12-14-10-12-14-9-10-12-9-10-12-|------------------------------------------------------------------------|------------------------------------------------------------------------|------------------------------------------------------------------------|------------------------------------------------------------------------|
-------------------------------------------------------|--9-10-12-7-9-10-7-9-10-7-9-10-5-7-8-5-7-8-5-7-8-3-5-6-|-------------------------------------------------------|-------------------------------------------------------|-------------------------------------------------------|-------------------------------------------------------|
--------------------------------------------------|--3-5-6-3-5-6-2-3-5-2-3-5-2-3-5-0-2-3-0-2-3-0-2-3-|--------------------------------------------------|--------------------------------------------------|--------------------------------------------------|--------------------------------------------------|
---------------2--5~---------------|---------1--4--------------6-9-6---|------2----------------6-7-------7-|---4-----------------9-------------|-----------------------------------|-----------------------------------|
------------------------------------------------------|------------6-9h6-------------6-9h6---6---------------|--------6-7-------7-------6-7-------7---7---7---------|--9-6-9-------------9-6-9-----------------9---8/9~----|------------------------------------------------------|------------------------------------------------------|
----------------------------------------------------|--2h0-0-3h0-0-5h0-0-7h0-0-8h0-0-7h0-0-12h0-0-10h0-0-|----------------------------------------------------|----------------------------------------------------|----------------------------------------------------|----------------------------------------------------|
--------------------------------------------------|--8h0-0-7h0-0-5h0-0-3h0-0-2h0-0-3h0-0-5h0-0-7h0-0-|--------------------------------------------------|--------------------------------------------------|--------------------------------------------------|--------------------------------------------------|
----------------------------------------------------|--8h0-0-7h0-0-12h0-0-10h0-0-8h0-0-7h0-0-5h0-0-3h0-0-|----------------------------------------------------|----------------------------------------------------|----------------------------------------------------|----------------------------------------------------|
----------------------------------------------------|--2h0-0-3h0-0-5h0-0-7h0-0-8h0-0-7h0-0-12h0-0-10h0-0-|----------------------------------------------------|----------------------------------------------------|----------------------------------------------------|----------------------------------------------------|
--------------------------------------------------|--8h0-0-7h0-0-5h0-0-3h0-0-2h0-0-3h0-0-5h0-0-7h0-0-|--------------------------------------------------|--------------------------------------------------|--------------------------------------------------|--------------------------------------------------|
----------------------------------------------------|--8h0-0-7h0-0-12h0-0-10h0-0-8h0-0-7h0-0-5h0-0-3h0-0-|----------------------------------------------------|----------------------------------------------------|----------------------------------------------------|----------------------------------------------------|
------------------------------------------------------------------------|--12-14-15-12-14-15-12-14-15-10-12-14-10-12-14-10-12-14-9-10-12-9-10-12-|------------------------------------------------------------------------|------------------------------------------------------------------------|------------------------------------------------------------------------|------------------------------------------------------------------------|
-------------------------------------------------------|--9-10-12-7-9-10-7-9-10-7-9-10-5-7-8-5-7-8-5-7-8-3-5-6-|-------------------------------------------------------|-------------------------------------------------------|-------------------------------------------------------|-------------------------------------------------------|
--------------------------------------------------|--3-5-6-3-5-6-2-3-5-2-3-5-2-3-5-0-2-3-0-2-3-0-2-3-|--------------------------------------------------|--------------------------------------------------|--------------------------------------------------|--------------------------------------------------|
---------------2--5~-11-10-8-7-8-10-11-|---------1--4--------------------------|------2--------------------------------|---4-----------------------------------|---------------------------------------|---------------------------------------|
--10-8-7-8-10-15-14-11-10-8-7------7----------------13-9-10----|------------------------------10-8---10-8-7-----------------12-|--------------------------------------------9-7-6~-------------|---------------------------------------------------------------|---------------------------------------------------------------|---------------------------------------------------------------|
--9----------------------------------------|----10-12-9-10----9------------------------|---------------11---10-11------------------|--------------------------12-11-9----------|----------------------------------12-11-9~-|-------------------------------------------|
---------------9-------9-10----9-----------|--10--------10---12-12------12---9-10------|-----9----9---------------------------11-9-|-------11----------------------------------|-------------------------------------------|-------------------------------------------|
-----------------------------9-------|--9-10----9-------------------------|----------------10--------10---12-12-|-------12---9-10--------------------|--7-6--------------9----9------------|-----------------11-9-7-6-----------|------9-7h6h7~-------11--------------|--------------------------9-7h6h7~--|-------------------------------------|------------------------------------|-------------------------------------|------------------------------------|
--9---------9----9---------9----14-9-10----|----10---10---10---10---10---10---------12-|-------9--------------9--------------------|-------------------------------------------|-------------------------------------------|-------------------------------------------|
--9--------------------9---------9----9----|----10-12-9-10----9------10---10---10---10-|---------------11---10------9--------------|-------------------------------------------|-------------------------------------------|-------------------------------------------|
-------9----14-9-10----9-----------------------|----10---10---------12---10-12-9-10-9h10h9-----|--9----------------------------------------11--|-----------------------------------------------|-----------------------------------------------|-----------------------------------------------|
---------------9-------9-10----9-----------|--10--------10---12-12------12---9-10------|-----9----9---------------------------11-9-|-------11----------------------------------|-------------------------------------------|-------------------------------------------|
-----------------------------9-------|--9-10----9-------------------------|----------------10--------10---12-12-|-------12---9-10--------------------|--7-6--------------9----9------------|-----------------11-9-7-6-----------|------9-7h6h7~-------11--------------|--------------------------9-7h6h7~--|-------------------------------------|------------------------------------|-------------------------------------|------------------------------------|
--9---------9----9---------9----14-9-10----|----10---10---10---10---10---10---------12-|-------9--------------9--------------------|-------------------------------------------|-------------------------------------------|-------------------------------------------|
--9--------------------9---------9----9----|----10-12-9-10----9------10---10---10---10-|---------------11---10------9--------------|-------------------------------------------|-------------------------------------------|-------------------------------------------|
-------9----14-9-10----9--------------------|----10---10---------12---10-12-9-10----9----|--9---------------------------------11---10-|--------------------------------------------|--------------------------------------------|--------------------------------------------|
---------------------------------------|-------------------------||-----9-10----9-------------------------|---------------9---10----||--11------11---10-11-6-7---6-----------|---------------10--11----||-------------------------9---7-9-6-7---|--6------------10--11----||-------------------------------------9-|----8-9~-------8---9-----||---------------------------------------|-------------------------||
Tap to rate this tab
 
# A B C D E F G H I J K L M N O P Q R S T U V W X Y Z