Backyard Babies - Payback tab

Payback Complete Score As Recorded By The Backyard Babies
Words And Music By The Backyard Babies Tuning Eb


First Verse||---------------------------|--------------------------|||---------------------------|--------------------------|||*--------------------------|--------------------------|||*--------------------------|--------------------------|||---------------------------|--------------------------|||---0--0--3--0--5--0--6--5--|--0--0--3--0--5--0--6--5--|
|----------------------------|-------------------------|||----------------------------|-------------------------|||----------------------------|-------------4----------*|||----------------------------|--5----------4----------*|||----------------------------|--5----------2-----------|||---0--0--3--0--5--0--6--5---|--3----------------------||
Pre Chorus|--------------------|--------------------|--------------------||--------------------|--------------------|--------------------||--------------------|--------------------|--------------------||--9--9--9--9--8--7--|--9--9--9--9--8--7--|--9--9--9--9--8--7--||--9--9--9--9--8--7--|--9--9--9--9--8--7--|--9--9--9--9--8--7--||--7--7--7--7--6--5--|--7--7--7--7--6--5--|--7--7--7--7--6--5--|
Chorus||---------------------------|----------------------------|||---------------------------|----------------------------|||*--9--9--9--9--9--9--9--9--|----------------------------|||*--9--9--9--9--9--9--9--9--|--5--5--5--4--4--4--4--4----|||---7--7--7--7--7--7--7--7--|--5--5--5--5--5--5--5--5----|||---------------------------|--3--3--3--2--2--2--2--2----|
|------------------------------|-------------------|||------------------------------|-------------------|||------4---4---5---5---5---5---|---7---7---7---7--*|||--5---4---2---5---5---5---5---|---7---7---7---7--*|||--5---2---2---3---3---3---3---|---5---5---5---5---|||--3---------------------------|-------------------||
Drums|----------------------|-------------|----------------------||----------------------|-------------|----------------------||----------------------|-------------|----------------------||----------------------|-------------|----------------------||--2--5--7--8--7--5--2-|-------------|--2--5--7--8--7--5--2-||--0--3--5--6--5--3--0-|-------------|--0--3--5--6--5--3--0-|
Second Verse||---------------------------|--------------------------|||---------------------------|--------------------------|||*--------------------------|--------------------------|||*--------------------------|--------------------------|||---------------------------|--------------------------|||---0--0--3--0--5--0--6--5--|--0--0--3--0--5--0--6--5--|
|----------------------------|-------------------------|||----------------------------|-------------------------|||----------------------------|-------------4----------*|||----------------------------|--5----------4----------*|||----------------------------|--5----------2-----------|||---0--0--3--0--5--0--6--5---|--3----------------------||
Pre Chorus|-------------------|-------------------|------------------||-------------------|-------------------|------------------||-------------------|-------------------|------------------||--9--9--9--9--8--7-|--9--9--9--9--8--7-|-9--9--9--9--8--7-||--9--9--9--9--8--7-|--9--9--9--9--8--7-|-9--9--9--9--8--7-||--7--7--7--7--6--5-|--7--7--7--7--6--5-|-7--7--7--7--6--5-|
Chorus Play Twice||---------------------------|----------------------------|||---------------------------|----------------------------|||*--9--9--9--9--9--9--9--9--|----------------------------|||*--9--9--9--9--9--9--9--9--|--5--5--5--4--4--4--4--4----|||---7--7--7--7--7--7--7--7--|--5--5--5--5--5--5--5--5----|||---------------------------|--3--3--3--2--2--2--2--2----|
|-----------------------|---------------|||-----------------------|---------------|||-----4--4--5--5--5--5--|--7--7--7--7--*|||--5--4--2--5--5--5--5--|--7--7--7--7--*|||--5--2--2--3--3--3--3--|--5--5--5--5---|||--3--------------------|---------------||
Bridge|----------|----------|--------------------||----------|----------|--------------------||-5--------|-7--------|-9-9-9-9-9-9-9-9-9--||-5--------|-7--------|-9-9-9-9-9-9-9-9-9--||-3--------|-5--------|-7-7-7-7-7-7-7-7-7--||----------|----------|--------------------|
|----------|----------|--------------------||----------|----------|--------------------||-5--------|-7--------|-4-4-4-4-4-4-4-4-4--||-5--------|-7--------|-4-4-4-4-4-4-4-4-4--||-3--------|-5--------|-2-2-2-2-2-2-2-2-2--||----------|----------|--------------------|
Solo|----------------------|-------------|----------------------|-------------||----------------------|-------------|----------------------|-------------||----------------------|---x-x-x-----|----------------------|---x-x-x-----||----------------------|---x-x-x-----|----------------------|---x-x-x-----||--2--5--7--8--7--5--2-|---x-x-x-----|--2--5--7--8--7--5--2-|---x-x-x-----||--0--3--5--6--5--3--0-|-------------|--0--3--5--6--5--3--0-|-------------|
|----------------------|-------------|-----------||----------------------|-------------|-----------||----------------------|-------------|-----------||----------------------|-------------|-----------||--2--5--7--8--7--5--2-|-5-7-8-7-5-2-|-5-7-8-7-5-||--0--3--5--6--5--3--0-|-3-5-6-5-3-0-|-3-5-6-5-3-|
|---------------------------|--------------------------||---------------------------|--------------------------||---------------------------|--------------------------||---------------------------|--------------------------||---------------------------|--------------------------||---0--0--3--0--5--0--6--5--|--0--0--3--0--5--0--6--5--|
|---------------------------|--------------------------||---------------------------|--------------------------||---------------------------|--------------------------||---------------------------|--------------------------||---------------------------|--------------------------||---0--0--3--0--5--0--6--5--|--0--0--3--0--5--0--6--5--|
|--------------------|---------------------||--------------------|---------------------||--------------------|---------------------||--------------------|---------------------||---0--0--5--0--6--5-|-0--0--3--5--0--6--5-||--------------------|---------------------|
|---------------------------|--------------------------||---------------------------|--------------------------||---------------------------|--------------------------||---------------------------|--------------------------||---------------------------|--------------------------||---0--0--3--0--5--0--6--5--|--0--0--3--0--5--0--6--5--|
Pre Chorus|-------------------|-------------------|------------------||-------------------|-------------------|------------------||-------------------|-------------------|------------------||--9--9--9--9--8--7-|--9--9--9--9--8--7-|-9--9--9--9--8--7-||--9--9--9--9--8--7-|--9--9--9--9--8--7-|-9--9--9--9--8--7-||--7--7--7--7--6--5-|--7--7--7--7--6--5-|-7--7--7--7--6--5-|
Chorus||---------------------------|----------------------------|||---------------------------|----------------------------|||*--9--9--9--9--9--9--9--9--|----------------------------|||*--9--9--9--9--9--9--9--9--|--5--5--5--4--4--4--4--4----|||---7--7--7--7--7--7--7--7--|--5--5--5--5--5--5--5--5----|||---------------------------|--3--3--3--2--2--2--2--2----|
|-----------------------|---------------|||-----------------------|---------------|||-----4--4--5--5--5--5--|--7--7--7--7--*|||--5--4--2--5--5--5--5--|--7--7--7--7--*|||--5--2--2--3--3--3--3--|--5--5--5--5---|||--3--------------------|---------------||
Tap to rate this tab
 
# A B C D E F G H I J K L M N O P Q R S T U V W X Y Z