Bad Religion - Dream Of Unity tab

Author/Artist: Bad Religion
Title: Dream of Unity
Album: Tested
Transcribed by: Dave Raine
Email: Wouldn't You Like To Know?

Tune your guitar down 1/2 a step

Intro (x4)-0--0--0--0-2-2-|-0--0--0--0-3-3-|-0--0--0--0-2-2-|-2--2--2--2-0-0-|-2--2--2--2-----|-0--0--0--0-----|
Verse 1"I had a dream..."-3--3--3--3--2-----0--0-2-2-0--0-|-0--0--0--0--3--3--0--0-3-3-0--0-|-0--0--0--0--2--4--0--0-2-2-0--0-|-0--0--0--0--0--4--2--2-0-0-2--2-|-2--2--2--2-----2--2--2-----2--2-|-3--3--3--3--------0--0-----0--0-|
-3--3--3--3--2--2-3-3--2--2-|-0--0--0--0--3--3-0-0--3--3-|-0--0--0--0--2--2-0-0--2--2-|-0--0--0--0--0--0-0-0--0--0-|-2--2--2--2-------2-2-------|-3--3--3--3-------3-3-------|
-0--3--3--3--2-----0--0-|-0--2--0--0--3--3--0--0-|-0--3--0--0--2--4--0--0-|-2--0--0--0--0--4--2--2-|-2-----2--2-----2--2--2-|-0-----3--3--------0--0-|
-3--3--2--2--0--0-3-3--0--0-3-3--0--0-3-3--0--0-3-3--|-0--0--3--3--0--0-2-2--0--0-2-2--0--0-2-2--0--0-2-2--|-0--0--2--2--0--0-3-3--0--0-3-3--0--0-3-3--0--0-3-3--|-0--0--0--0--2--2-0-0--2--2-0-0--2--2-0-0--2--2-0-0--|-2--2--------2--2------2--2------2--2------2--2------|-3--3--------0--0------0--0------0--0------0--0------|
Verse 2"Sometimes we strive..."-3--3--3--3--2-----0--0-2-2-0--0-|-0--0--0--0--3--3--0--0-3-3-0--0-|-0--0--0--0--2--4--0--0-2-2-0--0-|-0--0--0--0--0--4--2--2-0-0-2--2-|-2--2--2--2-----2--2--2-----2--2-|-3--3--3--3--------0--0-----0--0-|
-3--3--3--3--2--2-3-3--2--2-|-0--0--0--0--3--3-0-0--3--3-|-0--0--0--0--2--2-0-0--2--2-|-0--0--0--0--0--0-0-0--0--0-|-2--2--2--2-------2-2-------|-3--3--3--3-------3-3-------|
-0--3--3--3--2-----0--0-|-0--2--0--0--3--3--0--0-|-0--3--0--0--2--4--0--0-|-2--0--0--0--0--4--2--2-|-2-----2--2-----2--2--2-|-0-----3--3--------0--0-|
-3--3--2--2--0--0-3-3--0--0-3-3--0--0-3-3--0--0-3-3--|-0--0--3--3--0--0-2-2--0--0-2-2--0--0-2-2--0--0-2-2--|-0--0--2--2--0--0-3-3--0--0-3-3--0--0-3-3--0--0-3-3--|-0--0--0--0--2--2-0-0--2--2-0-0--2--2-0-0--2--2-0-0--|-2--2--------2--2------2--2------2--2------2--2------|-3--3--------0--0------0--0------0--0------0--0------|
Solo on guitar 1-0---0-0-0-0-----1---0---0-0-0-0-----1---0---0-0-0-0-----1---0---0-0-0-0-----1--|--------------3-------------------3-------------------3-------------------3-----|--------------------------------------------------------------------------------|--------------------------------------------------------------------------------|--------------------------------------------------------------------------------|--------------------------------------------------------------------------------|
During solo, guitar 2 plays-0--0-3-3--0--0-3-3--0--0-3-3--0--0-3-3--|-0--0-2-2--0--0-2-2--0--0-2-2--0--0-2-2--|-0--0-3-3--0--0-3-3--0--0-3-3--0--0-3-3--|-2--2-0-0--2--2-0-0--2--2-0-0--2--2-0-0--|-2--2------2--2------2--2------2--2------|-0--0------0--0------0--0------0--0------|
Verse 3"I had a dream..."-3--3--3--3--2-----0--0-2-2-0--0-|-0--0--0--0--3--3--0--0-3-3-0--0-|-0--0--0--0--2--4--0--0-2-2-0--0-|-0--0--0--0--0--4--2--2-0-0-2--2-|-2--2--2--2-----2--2--2-----2--2-|-3--3--3--3--------0--0-----0--0-|
-3--3--3--3--2--2-3-3--2--2-|-0--0--0--0--3--3-0-0--3--3-|-0--0--0--0--2--2-0-0--2--2-|-0--0--0--0--0--0-0-0--0--0-|-2--2--2--2-------2-2-------|-3--3--3--3-------3-3-------|
-0--3--3--3--2-----0--0-|-0--2--0--0--3--3--0--0-|-0--3--0--0--2--4--0--0-|-2--0--0--0--0--4--2--2-|-2-----2--2-----2--2--2-|-0-----3--3--------0--0-|
-3--3--2--2--0--0-3-3--0--0-|-0--0--3--3--0--0-2-2--0--0-|-0--0--2--2--0--0-3-3--0--0-|-0--0--0--0--2--2-0-0--2--2-|-2--2--------2--2------2--2-|-3--3--------0--0------0--0-|
-3--3--2--2--0--0-3-3--0--0-3-3--0--0-3-3--0-|-0--0--3--3--0--0-2-2--0--0-2-2--0--0-2-2--0-|-0--0--2--2--0--0-3-3--0--0-3-3--0--0-3-3--0-| Let last chord ring-0--0--0--0--2--2-0-0--2--2-0-0--2--2-0-0--2-|-2--2--------2--2------2--2------2--2------2-|-3--3--------0--0------0--0------0--0------0-|
I'm sure this tab is just about correct, but at some parts, the guitar doesn't play the chords, just notes from the chords, but how I've written sounds good anyway. The lyrics I had a dream of unity Where we would walk side by side But today I see that its only me Just tryin' to get by Sometimes we strive undeterred To walk as one toward our goals But as people stray toward more selfish ways We see we have no control I had a dream of unity Where we would walk side by side But today I see that its only me Just tryin' to get by Just tryin' to get by
Tap to rate this tab
 
# A B C D E F G H I J K L M N O P Q R S T U V W X Y Z