Bad Religion – All There Is tab

PART 1||---5--5----5--5--5----5--|------------------------|------------------------|||---6--6----6--6--6----6--|------------------------|------------------------|||*--7--7----7--7--7----7--|------------------------|--5--5----5--5--5----5--|||*--7--7----7--7--7----7--|--3--3----3--3--3----3--|--5--5----5--5--5----5--|||---5--5----5--5--5----5--|--3--3----3--3--3----3--|--3--3----3--3--3----3--|||-------------------------|--1--1----1--1--1----1--|------------------------|
PART 2-------------------------||----------------------|--5--5----5--5--5----5--|-------------------------||----------------------|--6--6----6--6--6----6--|--3--3----3--3--5--5----*||------------5----5----|--7--7----7--7--7----7--|--3--3----3--3--5--5----*||--3----3----5----5----|--7--7----7--7--7----7--|--1--1----1--1--3--3-----||--3----3----3----3----|--5--5----5--5--5----5--|-------------------------||--1----1--------------|------------------------|
------------------------|------------------------|---------------------------|------------------------|------------------------|---------------------------|------------------------|--5--5----5--5--5----5--|--10--10----10--9--9----9--|--3--3----3--3--3----3--|--5--5----5--5--5----5--|--10--10----10--9--9----9--|--3--3----3--3--3----3--|--3--3----3--3--3----3--|--8---8-----8---7--7----7--|--1--1----1--1--1----1--|------------------------|---------------------------|
--------------------------|----------------x--------|--------------------------|----------------x--------|--7--7--7--7--7--7--7-----|----------------x--10----|-----------------------3--|----3--3--3--3--x--10----|--5--5--5--5--5--5--5--3--|----3--3--3--3--x--8-----|-----------------------1--|----1--1--1--1-----------|
PART 3||---------------------------|--------------------------|||---------------------------|--------------------------|||*--7--7--7--7--7--7--7--7--|--3--3--3--3--3--3--3--3--|||*--7--7--7--7--7--7--7--7--|--3--3--3--3--3--3--3--3--|||---5--5--5--5--5--5--5--5--|--1--1--1--1--1--1--1--1--|||---------------------------|--------------------------|
--------------------------|--------------------------||--------------------------|--------------------------||--------------------------|-------------------------*||--3--3--3--3--3--3--7--7--|----7--7--7--7--7--7--7--*||--3--3--3--3--3--3--7--7--|----7--7--7--7--7--7--7---||--1--1--1--1--1--1--5--5--|----5--5--5--5--5--5--5---||
PART 4-------------------------|--------------------------|--------------------------|-------------------------|--------------------------|--------------------------|-------------------------|--7--7--7--7--7--7--7--7--|--3--3--3--3--3--3--3--3--|----7--7--7--7--7--7--7--|--7--7--7--7--7--7--7--7--|--3--3--3--3--3--3--3--3--|----7--7--7--7--7--7--7--|--5--5--5--5--5--5--5--5--|--1--1--1--1--1--1--1--1--|----5--5--5--5--5--5--5--|--------------------------|--------------------------|
--------------------------|-------------------------|--------------------------|--------------------------|-------------------------|--------------------------|--------------------------|-------------------------|--3--3--3--3--3--3--3--3--|--3--3--3--3--3--3--7--7--|----7--7--7--7--7--7--7--|--3--3--3--3--3--3--3--3--|--3--3--3--3--3--3--7--7--|----7--7--7--7--7--7--7--|--1--1--1--1--1--1--1--1--|--1--1--1--1--1--1--5--5--|----5--5--5--5--5--5--5--|--------------------------|
--------------------x--5--|--------------------x--6--|--5--5--5--5--5--5--x--7--|--5--5--5--5--5--5--x--7--|--3--3--3--3--3--3--x--5--|--------------------------|
PART 1PART 2PART 3PART 4Solo--------------13----13--|----------------------------|--13--------------------|------------------------13--|--14--------------------|--12r-------12~-----12--12--|------------------------|--------12------------------|------------------------|----------------------------|------------------------|----------------------------|
----------------------------------|------------------------------|--13--13--13--13--13--13--13--13--|------------------------------|--10--12--10--12--10--12--10--12--|--10--10--10------10~---10~---|----------------------------------|--------------12--------------|----------------------------------|------------------------------|----------------------------------|------------------------------|
--------------------------|------------------------------|--------------------------|------------------------------|--------------------------|------------------------------|----------------10~-------|----------10--------10----12/-|------------10------------|------10------10--------------|----10--13----------------|--13--------------------------|
----------------------------|----------------------------|----------------------------|------13--13----15----15~---|--------12b---12--10--10b---|--10------------------------|--15------------------------|----------------------------|----------------------------|----------------------------|----------------------------|----------------------------|
----------------------------|----------------------------|--------------------|--15/-----10--13--15----15--|--15~---13~---10------------|--------------------|----------------------------|------------------12--10----|--14----------------|----------------------------|----------------------------|--------------------|----------------------------|----------------------------|--------------------|----------------------------|----------------------------|--------------------|
--------------------|--------------------------|--------------------------|--------------------|--------------------------|--------------------------|--------------14/---|--------------------------|--------------------------|--------------------|--7--7--7--7--7--7--7--7--|--------------------------|--------------------|--5--5--5--5--5--5--5--5--|--3--3--3--3--3--3--3--3--|--------------------|--------------------------|--1--1--1--1--1--1--1--1--|
--------------------------|--------------------------|--------------------------|--------------------------|--------------------------|--------------------------|--5--5--5--5--5--5--5--5--|--3--3--3--3--5--5--5--5--|--3--3--3--3--3--3--3--3--|--1--1--1--1--3--3--3--3--|--------------------------|--------------------------|
--------------------------|--------------------------|--------------------------|--------------------------|--------------------------|--------------------------|--7--7--7--7--7--7--7--7--|--------------------------|--5--5--5--5--5--5--5--5--|--3--3--3--3--3--3--3--3--|--------------------------|--1--1--1--1--1--1--1--1--|
--------------------------|---------------------|--5--5----5--5--5----5--|--------------------------|---------------------|--6--6----6--6--6----6--|--------------------------|--10--------9--------|--7--7----7--7--7----7--|--5--5--5--5--5--5--5--5--|--10--------9--------|--7--7----7--7--7----7--|--3--3--3--3--3--3--3--3--|--8---------7--------|--5--5----5--5--5----5--|--------------------------|---------------------|------------------------|
------------------------|------------------------|---------------------------|------------------------|------------------------|---------------------------|------------------------|--5--5----5--5--5----5--|--10--10----10--9--9----9--|--3--3----3--3--3----3--|--5--5----5--5--5----5--|--10--10----10--9--9----9--|--3--3----3--3--3----3--|--3--3----3--3--3----3--|--8---8-----8---7--7----7--|--1--1----1--1--1----1--|------------------------|---------------------------|
--------------------------|----------------x--------|--------------------------|----------------x--------|--7--7--7--7--7--7--7-----|----------------x--10----|-----------------------3--|----3--3--3--3--x--10----|--5--5--5--5--5--5--5--3--|----3--3--3--3--x--8-----|-----------------------1--|----1--1--1--1-----------|
PART 3PART 4And then end with this|--------------------------||--------------------------||--3--3--3--3--3--3--3--3--||--3--3--3--3--3--3--3--3--||--1--1--1--1--1--1--1--1--||--------------------------|
--------------------x--5--|--------------------x--6--|--5--5--5--5--5--5--x--7--|--5--5--5--5--5--5--x--7--|--3--3--3--3--3--3--x--5--|--------------------------|
Please rate this tab:
x1.0