Badfinger - No Matter What tab

Received: from animal-farm.nevada.edu by redrock.nevada.edu (5.65c/M1.4)
	with SMTP id ; Mon, 5 Apr 1993 08:27:23 -0700
Received: from rcwgwy.bp.com by animal-farm.nevada.edu id ; Mon, 5 Apr 1993 08:27:19 -0700
Received: by rcwgwy.bp.com (5.57/Ultrix3.0-C)
	id AA06751; Mon, 5 Apr 93 11:28:21 -0400
From: vegeaisj@rcw004.dnet.bp.com
Message-Id: <9304051528.AA06751@rcwgwy.bp.com>
Date: Mon, 5 Apr 93 11:30:04 -0400
To: jamesb@animal-farm.nevada.edu
Cc: VEGEAISJ@rcwgwy.bp.com
Subject: TAB: No Matter What by Badfinger

No Matter What by Badfinger from the album "No Dice"
trans. Jim Vegeais (vegeaisj@rcwcl1.dnet.bp.com)


There are at least three guitar parts in the studio version:  distorted
guitar mainly on the left channel (moved to center for the intro), a
brighter cleaner rhythm guitar on the right channel, and slightly distorted
guitar through a Leslie speaker that begins after the first bridge and
covers up most of the distorted guitar on the left channel. 


intro--------------------------------------------------2---2---2---------2-----2---2------2--h4--------0---0-----------------------------------------
verse----------------------------------------------------------------------------------------------------2---2---2-----------2---2--2---2-----------2-----2---2-------2--h4-------2--2-------2--h4---------0---0-------------------0--0-------------------------------------------------------------------- A
----------------------------------------------------------------------------------------------------4---4---4-----------2---4--4---4-----------2-----4---4-------2--h4-------4--4-------2--h4---------2---2-------------------2--2-------------------------------------------------------------------- Bm
*--2---0---2---0-------------------------------0-----3---0---3---0-------------------------------0-----2---1---2---1-------2---2---2-----------2---1-----0---2---0---2-------2---2-------2--h4-------2---------2-------2-------0---0-------------------2---------0-------0-------------------------------0--- D E D E A Erepeat, second time at * continue:
----------------------0-------------------------------------2-------3-------2-------3-------2-------0---------2---2---2---2---2---2---2---2---2---2---2---2---2-----2---2---2---2---2---2---2---2---2---2---2---2---2-----0---0---0---0---0---0---0---0---0---0---0---0---0--------------------------------------------------------- A
bridge---------------------2----------5-----4---3---2---1---3------2-----2---1---0---2---4------2-----4---2---2---0---4------4-----2---2---0-------2------2---------0--------------- F#m7 B7 E7 A7 D7 Bm
----------------------0-------------------------------------2-------3-------2-------3-------2-------0---------2---2---2---2---2---2---2---2---2---2---2---2---2-----2---2---2---2---2---2---2---2---2---2---2---2---2-----0---0---0---0---0---0---0---0---0---0---0---0---0--------------------------------------------------------- A
---------------------2----------5-----4---3---2---1---3------2-----2---1---0---2---4------2-----4---2---2---0---4------4-----2---2---0-------2------2---------0--------------- F#m7 B7 E7 A7 D7 Bm
--------------------------------------------------------------------------------------------------------------------5---5---5---5---5---5---5---5---2-----5---5---5---5---5---5---5---5---2-----3---3---3---3---3---3---3---3---0--- G E
verse - Leslie guitar----------------------0-------------------------------------2-------3-------2-------3-------2-------0---------2---2---2---2---2---2---2---2---2---2---2---2---2-----2---2---2---2---2---2---2---2---2---2---2---2---2-----0---0---0---0---0---0---0---0---0---0---0---0---0--------------------------------------------------------- A
-----------------------2-----------------------------------------3-------5-------3-------5-------3-------2-------------4---4---4---4---4---4---4---4---4---4---4---4---4---4-----4---4---4---4---4---4---4---4---4---4---4---4---4---4-----2---2---2---2---2---2---2---2---2---2---2---2---2---2------------------------------------------------------------ Bm
---2---0---2---0------3---0---3---0------2---1---2---1------0---2---0---2----------2-------2----------0-------0--- D E D E
----------------------0-------------------------------------2-------3-------2-------3-------2-------0---------2---2---2---2---2---2---2---2---2---2---2---2---2-----2---2---2---2---2---2---2---2---2---2---2---2---2-----0---0---0---0---0---0---0---0---0---0---0---0---0--------------------------------------------------------- A
lick on the DEDE part near end------------------------------------------------------------------------------------------------------------------------------------------------2-------------------------------2------------------------0---/4--------------------------0---/4--------------------------------------------------2-------------------------------2------------------------0---/4-------4------------------0---/4--------4---
lick on G part the 2nd time------------------------------------------------------------------------------------------------------------------------------------5---5---5---5-----------------------2------5---5---5---5--------5--------------2------3---3---3---3---/7-------7----/3----0---
Tap to rate this tab
 
# A B C D E F G H I J K L M N O P Q R S T U V W X Y Z