Bal-sagoth - Naked Steel tab

Bal-Sagoth
"Naked Steel (The Warrior's Saga)"
from the album: Battle Magic

Transcribed by: Nick Beato (entity@cfl.rr.com)

Tuning (High to Low): Eb Bb Gb Db Ab Eb (down a 1/2 step)

part 1

--------------------------------------------------------------------------------------------------------------------------------------------------------------------------------------------------------------------9---------------12--------------9------------------------------------7---------------10--------------7---------------6----------------0-7--------------7-0------------0-7-------------7-0-4--------------- * * * * * * * *
part 2
----------------------------------------------------------------------------------------------------------------------------------------------------9-----7-6---------7-----------------9-9--------7-----5-4-------4-5-----5-9-7-5---9-7-7--0-7-10------------4-7-------7-----------7----- * * * * * * * * * * *
part 3
----------------------------------------------------------------------------------------------------------------------------------------------------------------------------------------------------------9-----7-6---------7-----5-4---------5-----3-2-------4------------7-----5-4-------4-5-----3-2-------2-3-----1-0---4---2------0-7-10------------4-7---------------2-5---------------2--------- * * * * * * * * *
----------------------------------------------------------------------------------------------------------(4)------\\\9/////21\\\\\\\\(9)----(2)------------------------------------------------------------------
part 4a (tremolo pick all, sometimes you only play first half)
--------------------------------------------------------------------------------------------------------------------------------6-------4-----3---3--------------------4-----------------6-------4-6-4-3-3----6----------------------------------6--4-
--------------------------------------------------------------------------------------------------------------------------------6-------4-----3---3--------------------4-----------------6-------4-6----------6---------------------------------------
--------------------------------------------------------------------------------------------------------------------------------6-------4-----3---3--------------------4-----------------6-------4-6-4-3-3----6----------------------------------6--4-
--------------------------------------------------------------------------------------------------------------------------------6-------4-----3---3-----4-3---3--------4-----------------6-----------6--------6---------------------------------------
part 4b
-----------------------------------------------------------------------------------------------ph--------ph---------------------6-------4~~---3---3~~------------------4-----------------6-------4-6-4-3-3---/6----------------------------------6--4-
-----------------------------------------------------------------------------------------------ph--------ph---------------------6-------4~~---3---3~~---4-3---3~~------4-----------------6-----------6-------/6---------------------------------------
part 5 (not sure about the last part)
-----------------------------------------------------------------------------------------------------9-9----(ph)---------------------7-7-----10---10----10-9-----0-7-----7-0---------12------10- * * * * * * * * *
--------------------------------------------------------------------------------------------7-7----------------------0-5-5-5-5-0-5-7-5---5--------------------------8---7-8-5- * * * * * * * * * * * *
part 6 (modified part 3 and bridge)
----------------------------------------------------------------------------------------------------------------------------------------------------------------------------9-----7-6---------7-----5-4---------5-----3-2----------7-----5-4-------4-5-----3-2-------2-3-----1-0----0-7-10------------4-7---------------2-5--------------- * * * * * * * * *
-------------------------------------------------------------------------------------------------------------------------------4-----2------------------5---4--- ?????-----0-2-----0-5---3---2---3----3---2----0-3-----------3---1---0---1------------ * * *
------------------------------------------------- ------------------------------------------------- ------------------------------------------------- -9"-10"-9"-8"-9"-10"-9"-8"-etc.........---------- ------------------------------------------------- -------------------------------------------------
---------------------------------------------------------------------7---7---7---7------7---7---7---7- * * * * * * * *
part 7 (hard to hear this one)
----------------------------------------------------------------------------------------------(ph)-----(ph)-------------------------7~~------5~~-----7~~~-7-7~~~-10-9-10-----9~~-----5~~--------------------------------------
----------------------------------------------------------------------------------------------------------9~~~-9-7~~~-9-10-9-7--------------------------------------10~~~~----------------------------------------
part 8
-----------------------------------------------------17-15~~-12-12~~~-------13~~~-12~~~------------------------------14-12-------------14~~~--/14~----------------------------------------------------------------------------------------------------------------------------------------
------------------------------------------------12------------------------------------------------14-12\11-------11~~~----------11-12-14~~~---------------14~~~-------12~~~-14------------------------------------------------------------------------------------------------------------
------------------------------------------/15~~~-17-12~~~-------13~~~-12~~~------------------------14-12-------------14~~~----------------------------------------------------------------------------------------------------------------------------
------------------------------------------------12------------------------------------------------14-12\11-------11~~~----------/16~~-14~~~---------------14~~~-------12~~~-14------------------------------------------------------------------------------------------------------------
part 9 start (repeat a few times)
----------------------------------------2-4----------0-2-2-222-2-------------- * *** *
part 9 ending 1
--------------------------------------------------------------------------------------------------------9-10-12-/14-12-10-9--5---4---2----------------------3---2---0--------------------- * * * * * *
-----------------------------------------------------ph------------------------------12-11~~~~-ph---------9~~~-10-12~~~-----------10~~~~~-------------------------------------------------------------------------
part 9 ending 2
-------------------------------------------------------------------------------------------------------------------------------------------9-12-11-12-7-12-11-12----12-11-12---------9-------------------------10----------9-12-10--------------------------------------------------
part 10
----------------------------------------------------------------------------------------------12----------9--9\--------------10----2-----7--7\--------------------0-----------------------
song composition.... 0:00 part 1 0:10 part 2 0:31 part 3 0:44 part 4a 1:03 part 5 1:13 part 4a 1:32 part 5 1:50 part 4a 2:02 part 4b 2:10 part 1 2:20 part 6 2:39 part 7 3:04 part 8 3:25 part 7 3:51 part 4a 4:02 part 4b 4:11 part 9 4:35 part 10 email comments, complaints, corrections or whatever to... Nick Beato (entity@cfl.rr.com) This file was downloaded from... Musical Manifestations (http://home.cfl.rr.com/xezlorir/mm) if the link is not found, email: Xezlorir@hotmail.com enjoy!
Tap to rate this tab
 
# A B C D E F G H I J K L M N O P Q R S T U V W X Y Z