Bamboo – Mr Clay tab

MR. CLAY by bamboo

tabber: (tenderschnitzel@hotmail.com)------teejay
song:   mr.clay
band:   bamboo
tuning: EADGBe

note: there you go! this is as accurate as i can get!!! pinakinggang kong mabuti!
im sure you're gonna like this one right here!!.. enjoy!!!
>hi sa lahat ng taga MICA!!! woohoo!!... hi din kay JASMINE!!.. sa G4... and kay SHENSHEN!!...0shigeh!!!

intro:

|-----------------|-----------------|-----------------|-----------------||-----------------|-----------------|-----------------|-----------------||-----------------|-----------------|-----------------|-----------------|(2x)|-7-7-7-7-7-7-7-7-|-7-7-7-7-7-7-7-7-|-7-7-7-7-7-7-7-7-|-7-7-7-7-7-7-7-7-||-7-7-7-7-7-7-7-7-|-8-8-8-8-8-8-8-8-|-9-9-9-9-9-9-9-9-|-8-8-8-8-8-8-8-8-||-5-5-5-5-5-5-5-5-|-5-5-5-5-5-5-5-5-|-5-5-5-5-5-5-5-5-|-5-5-5-5-5-5-5-5-|
verse1:
|-----------------|-----------------|-----------------|-----------------||-----------------|-----------------|-----------------|-----------------||-----------------|-----------------|-----------------|-----------------|(2x)|-7---------------|-7---------------|-7---------------|-7---------------||-7---------------|-8---------------|-9---------------|-8---------------||-5---------------|-5---------------|-5---------------|-5---------------|
|-----------------|-----------------|-----------------||-----------------|-----------------|-----------------||-----------------|-----------------|-----------------||-7-7-7-7-7-7-7-7-|-7-7-7-7-7-7-7-7-|-7-7-7-7-7-7-7-7-||-7-7-7-7-7-7-7-7-|-8-8-8-8-8-8-8-8-|-9-9-9-9-9-9-9-9-||-5-5-5-5-5-5-5-5-|-5-5-5-5-5-5-5-5-|-5-5-5-5-5-5-5-5-|
|-----------------|-----------------||-----------------|-----------------||-----------------|-----------------||-3-3-3-3-3-3-3-3-|-5-5-5-5-5-5-5-5-||-3-3-3-3-3-3-3-3-|-5-5-5-5-5-5-5-5-||-1-1-1-1-1-1-1-1-|-3-3-3-3-3-3-3-3-|
verse2:
|-----------------|-----------------|-----------------|-----------------||-----------------|-----------------|-----------------|-----------------||-----------------|-----------------|-----------------|-----------------||-7-----7-----7---|-7-----7-----7---|-7-----7-----7---|-7-----7-----7---||-7-----7-----7---|-8-----8-----8---|-9-----9-----9---|-8-----8-----8---||-5-----5-----5---|-5-----5-----5---|-5-----5-----5---|-5-----5-----5---|
|-----------------|-----------------|-----------------||-----------------|-----------------|-----------------||-----------------|-----------------|-----------------||-7-----7-----7---|-7-----7-----7---|-7-----7-----7---||-7-----7-----7---|-8-----8-----8---|-9-----9-----9---||-5-----5-----5---|-5-----5-----5---|-5-----5-----5---|
|-----------------|-----------------||-----------------|-----------------||-----------------|-----------------||-3-3-3-3-3-3-3-3-|-5-5-5-5-5-5-5-5-||-3-3-3-3-3-3-3-3-|-5-5-5-5-5-5-5-5-||-1-1-1-1-1-1-1-1-|-3-3-3-3-3-3-3-3-|
chorus:
|-----------------|-----------------|-----------------|-----------------||-----------------|-----------------|-----------------|-----------------||-----------------|-----------------|-----------------|-----------------||-5-5-5-5-5-5-5-5-|-7-7-7-7-7-7-7-7-|-3-3-3-3-3-3-3-3-|-5-5-5-5-5-5-5-5-||-5-5-5-5-5-5-5-5-|-7-7-7-7-7-7-7-7-|-3-3-3-3-3-3-3-3-|-5-5-5-5-5-5-5-5-||-3-3-3-3-3-3-3-3-|-5-5-5-5-5-5-5-5-|-1-1-1-1-1-1-1-1-|-3-3-3-3-3-3-3-3-|
|-----------------|-----------------|-----------------||-----------------|-----------------|-----------------||-----------------|-----------------|-----------------||-5-5-5-5-5-5-5-5-|-7-7-7-7-7-7-7-7-|-3-3-3-3-3-3-3-3-||-5-5-5-5-5-5-5-5-|-7-7-7-7-7-7-7-7-|-3-3-3-3-3-3-3-3-||-3-3-3-3-3-3-3-3-|-5-5-5-5-5-5-5-5-|-1-1-1-1-1-1-1-1-|
|-----------------|-----------------|-----------------||-----------------|-----------------|-----------------||-----------------|-----------------|-----------------||-5-5-5-5-x-3-3-3-|-5-5-5-5-x-3-3-3-|-5-5-5-5-x-3-3-3-||-5-5-5-5-x-3-3-3-|-5-5-5-5-x-3-3-3-|-5-5-5-5-x-3-3-3-||-3-3-3-3-x-1-1-1-|-3-3-3-3-x-1-1-1-|-3-3-3-3-x-1-1-1-|
post-chorus:
|-----------------|-----------------|-----------------|-----------------||-----------------|-----------------|-----------------|-----------------||-----------------|-----------------|-----------------|-----------------||-7-7-7-7-7-7-7-7-|-7-7-7-7-7-7-7-7-|-7-7-7-7-7-7-7-7-|-7-7-7-7-7-7-7-7-||-7-7-7-7-7-7-7-7-|-8-8-8-8-8-8-8-8-|-9-9-9-9-9-9-9-9-|-8-8-8-8-8-8-8-8-||-5-5-5-5-5-5-5-5-|-5-5-5-5-5-5-5-5-|-5-5-5-5-5-5-5-5-|-5-5-5-5-5-5-5-5-|
verse3:
|-----------------|-----------------|-----------------|-----------------||-----------------|-----------------|-----------------|-----------------||-----------------|-----------------|-----------------|-----------------|(2x)|-7-7-7-7-7-7-7-7-|-7-7-7-7-7-7-7-7-|-7-7-7-7-7-7-7-7-|-7-7-7-7-7-7-7-7-||-7-7-7-7-7-7-7-7-|-8-8-8-8-8-8-8-8-|-9-9-9-9-9-9-9-9-|-8-8-8-8-8-8-8-8-||-5-5-5-5-5-5-5-5-|-5-5-5-5-5-5-5-5-|-5-5-5-5-5-5-5-5-|-5-5-5-5-5-5-5-5-|
|-----------------|-----------------|-----------------||-----------------|-----------------|-----------------||-----------------|-----------------|-----------------||-7-7-7-7-7-7-7-7-|-7-7-7-7-7-7-7-7-|-7-7-7-7-7-7-7-7-||-7-7-7-7-7-7-7-7-|-8-8-8-8-8-8-8-8-|-9-9-9-9-9-9-9-9-||-5-5-5-5-5-5-5-5-|-5-5-5-5-5-5-5-5-|-7-7-7-7-7-7-7-7-|
|-----------------|-----------------||-----------------|-----------------||-----------------|-----------------||-3-3-3-3-3-3-3-3-|-5-5-5-5-5-5-5-5-||-3-3-3-3-3-3-3-3-|-5-5-5-5-5-5-5-5-||-1-1-1-1-1-1-1-1-|-3-3-3-3-3-3-3-3-|
(repeat chorus) bridge:
|-------------------|-------------------|-------------------|-------------------||-------------------|-------------------|-------------------|-------------------||-------------------|-------------------|-------------------|-------------------||-5h7-7-55h7-7-55h7-|-5h7-7-55h7-7-55h7-|-5h7-7-55h7-7-55h7-|-5h7-7-55h7-7-55h7-||-5h7-7-55h7-7-55h7-|-5h7-7-55h7-7-55h7-|-5h7-7-55h7-7-55h7-|-5h7-7-55h7-7-55h7-||-5-----55-----55---|-5-----55-----55---|-5-----55-----55---|-5-----55-----55---|
|-------------|-------------|-------------|-------------||-------------|-------------|-------------|-------------||-------------|-------------|-------------|-------------||-5-5-5-5-5-5-|-7-7-7-7-7-7-|-3-3-3-3-3-3-|-5-5-5-5-5-5-||-5-5-5-5-5-5-|-7-7-7-7-7-7-|-3-3-3-3-3-3-|-5-5-5-5-5-5-||-3-3-3-3-3-3-|-5-5-5-5-5-5-|-1-1-1-1-1-1-|-3-3-3-3-3-3-|
|-------------|-------------|-------------||-------------|-------------|-------------||-------------|-------------|-------------||-5-5-5-5-5-5-|-7-7-7-7-7-7-|-3-3-3-3-3-3-||-5-5-5-5-5-5-|-7-7-7-7-7-7-|-3-3-3-3-3-3-||-3-3-3-3-3-3-|-5-5-5-5-5-5-|-1-1-1-1-1-1-|
|-------------|-------------|-------------||-------------|-------------|-------------||-------------|-------------|-------------||-5-5-5-x-3-3-|-5-5-5-x-3-3-|-5-5-5-x-3-3-||-5-5-5-x-3-3-|-5-5-5-x-3-3-|-5-5-5-x-3-3-||-3-3-3-x-1-1-|-3-3-3-x-1-1-|-3-3-3-x-1-1-|
|-----------------|-----------------|-----------------|-----------------||-----------------|-----------------|-----------------|-----------------||-----------------|-----------------|-----------------|-----------------||-7-7-7-7-7-7-7-7-|-7-7-7-7-7-7-7-7-|-7-7-7-7-7-7-7-7-|-7-7-7-7-7-7-7-7-||-7-7-7-7-7-7-7-7-|-8-8-8-8-8-8-8-8-|-9-9-9-9-9-9-9-9-|-8-8-8-8-8-8-8-8-||-5-5-5-5-5-5-5-5-|-5-5-5-5-5-5-5-5-|-5-5-5-5-5-5-5-5-|-5-5-5-5-5-5-5-5-|
|-----------------||-----------------||-----------------||-7~~-------------||-7~~-----(pause)-||-5~~-------------|
verse4:
|-----------------|-----------------|-----------------|-----------------||-----------------|-----------------|-----------------|-----------------||-----------------|-----------------|-----------------|-----------------||-7-7-7-7-7-7-7-7-|-7-7-7-7-7-7-7-7-|-7-7-7-7-7-7-7-7-|-7-7-7-7-7-7-7-7-||-7-7-7-7-7-7-7-7-|-8-8-8-8-8-8-8-8-|-9-9-9-9-9-9-9-9-|-8-8-8-8-8-8-8-8-||-5-5-5-5-5-5-5-5-|-5-5-5-5-5-5-5-5-|-5-5-5-5-5-5-5-5-|-5-5-5-5-5-5-5-5-|
|-----------------|-----------------|-----------------||-----------------|-----------------|-----------------||-----------------|-----------------|-----------------||-7-7-7-7-7-7-7-7-|-7-7-7-7-7-7-7-7-|-7-7-7-7-7-7-7-7-||-7-7-7-7-7-7-7-7-|-8-8-8-8-8-8-8-8-|-9-9-9-9-9-9-9-9-||-5-5-5-5-5-5-5-5-|-5-5-5-5-5-5-5-5-|-5-5-5-5-5-5-5-5-|
|-----------------|-----------------||-----------------|-----------------||-----------------|-----------------||-3-3-3-3-3-3-3-3-|-5-5-5-5-5-5-5-5-||-3-3-3-3-3-3-3-3-|-5-5-5-5-5-5-5-5-||-1-1-1-1-1-1-1-1-|-3-3-3-3-3-3-3-3-|
(repeat chorus) >rock on ultimate guitar!!! teejay v. BOUNCE..!!
Please rate this tab:
x1.0