Barbarroja - La Noche Del Diablo tab

1.------------------------------------------------|2.------------------------------------------------|3.------------------------------------------------|4.-----0-1-2-----2-1-0-----0-1-2--5-7-------0-1-2-|5.-2---------2---------2----------3-5---2---------|6.-0-0-------0-0-------0-0--------------0-0-------|
1.-------------------------------------------| 2 veces.2.-------------------------------------------|3.-------------------------------------------|4.-----2-1-0------0-1-2--------------2-------|5.-2----------2----------2---5---5---0---2---|6.-0-0--------0-0--------0---3---3-------0---|
Sírveme otra copa,1.-------------------------------------------------|2.-------------------------------------------------|3.-------------------------------------------------|4.-------------------------------------------------|5.-2---2-2-2-2-2---2-2-2-2-2---2-2-2---0-1-2-0-1-2-|6.-0---0-0-0-0-0---0-0-0-0-0---0-0-0---------------|
1.-------------------------------------------------|2.-------------------------------------------------|3.-------------------------------------------------|4.-------------------------------------------------|5.-2-2-2-2-2---2-2-2-2-2---2-2-2---0-1-2-0-1-2-----|6.-0-0-0-0-0---0-0-0-0-0---0-0-0-------------------|
1.--------------------------------------------------|2.--------------------------------------------------|3.--------------------------------------------------|4.-5---5-5-5-5-5---5-5-5-5-5---5-5-5---3-4-5-3-4-5--|5.-3---3-3-3-3-3---3-3-3-3-3---3-3-3----------------|6.--------------------------------------------------|
1.--------------------------------------------------|2.--------------------------------------------------|3.--------------------------------------------------|4.-7---7-7-7-7-7---7-7-7-7-7---7-7-7---5-6-7-5-6-7--|5.-5---5-5-5-5-5---5-5-5-5-5---5-5-5----------------|6.--------------------------------------------------|
Todos disfrazados...1.-------------------------------------------------|2.-------------------------------------------------|3.-------------------------------------------------|4.-------------------------------------------------|5.-2---2-2-2-2-2---2-2-2-2-2---2-2-2---0-1-2-0-1-2-|6.-0---0-0-0-0-0---0-0-0-0-0---0-0-0---------------|
1.-------------------------------------------------|2.-------------------------------------------------|3.-------------------------------------------------|4.-------------------------------------------------|5.-2-2-2-2-2---2-2-2-2-2---2-2-2---0-1-2-0-1-2-----|6.-0-0-0-0-0---0-0-0-0-0---0-0-0-------------------|
1.--------------------------------------------------|2.--------------------------------------------------|3.--------------------------------------------------|4.-5---5-5-5-5-5---5-5-5-5-5---5-5-5---3-4-5-3-4-5--|5.-3---3-3-3-3-3---3-3-3-3-3---3-3-3----------------|6.--------------------------------------------------|
1.--------------------------------------------------|2.--------------------------------------------------|3.--------------------------------------------------|4.-7---7-7-7-7-7---7-7-7-7-7---7-7-7----------------|5.-5---5-5-5-5-5---5-5-5-5-5---5-5-5----------------|6.--------------------------------------------------|
ˇVen, acércate1.-------------------------------------------------|2.-------------------------------------------------|3.-------------------------------------------------|4.-7---7-4-5-7---7---7-5-7-9---9-9-7-5---5-5-5-5---|5.-5---5-2-3-5---5---5-3-5-7---7-7-5-3---3-3-3-3---|6.-------------------------------------------------|
1.-----------------------------------------------------|2.-----------------------------------------------------|3.-----------------------------------------------------|4.-5-5-5-5---5-5-5-5---5-7-5-----------7---7---7-5-7-9-|5.-3-3-3-3---3-3-3-3---3-5-3-5-5-------5---5---5-3-5-7-|6.---------------------------3-3-3-0-1-----------------|
1.----------------------------------------------------|2.----------------------------------------------------|3.----------------------------------------------------|4.-9---9-7-5---5-5-5-5--------------------------------|5.-7---7-5-3---3-3-3-3--------------------------------|6.----------------------------------------------------|
1.-----------------------------------------------------------|2.-----------------------------------------------------------|3.-----------------------------------------------------------|4.-5-5-5-5-5------0-1-2-----2-1-0-----0-1-2--5-7-------0-1-2-|5.-3-3-3-3-3--2---------2---------2----------3-5---2---------|6.------------0-0-------0-0-------0-0--------------0-0-------|
1.-------------------------------------------| 2 veces.2.-------------------------------------------|3.-------------------------------------------|4.-----2-1-0------0-1-2--------------2-------|5.-2----------2----------2---5---5---0---2---|6.-0-0--------0-0--------0---3---3-------0---|
Veo escobas, cuernos,1.--------------------------------------------------|2.--------------------------------------------------|3.--------------------------------------------------|4.--------------------------------------------------|5.-2---2-2-2-2-2---2-2-2-2-2---2-2-2---0-1-2-0-1-2--|6.-0---0-0-0-0-0---0-0-0-0-0---0-0-0----------------|
1.--------------------------------------------------|2.--------------------------------------------------|3.--------------------------------------------------|4.--------------------------------------------------|5.-2-2-2-2-2---2-2-2-2-2---2-2-2---0-1-2-0-1-2------|6.-0-0-0-0-0---0-0-0-0-0---0-0-0--------------------|
1.--------------------------------------------------|2.--------------------------------------------------|3.--------------------------------------------------|4.-5---5-5-5-5-5---5-5-5-5-5---5-5-5---3-4-5-3-4-5--|5.-3---3-3-3-3-3---3-3-3-3-3---3-3-3----------------|6.--------------------------------------------------|
1.----------------------------------------------------|2.----------------------------------------------------|3.----------------------------------------------------|4.-7---7-7-7-7-7---7-7-7-7-7---7-7-7---5-6-7-5-6-7----|5.-5---5-5-5-5-5---5-5-5-5-5---5-5-5------------------|6.----------------------------------------------------|
En la noche del pecado1.-------------------------------------------------|2.-------------------------------------------------|3.-------------------------------------------------|4.-------------------------------------------------|5.-2---2-2-2-2-2---2-2-2-2-2---2-2-2---0-1-2-0-1-2-|6.-0---0-0-0-0-0---0-0-0-0-0---0-0-0---------------|
1.-------------------------------------------------|2.-------------------------------------------------|3.-------------------------------------------------|4.-------------------------------------------------|5.-2-2-2-2-2---2-2-2-2-2---2-2-2---0-1-2-0-1-2-----|6.-0-0-0-0-0---0-0-0-0-0---0-0-0-------------------|
1.--------------------------------------------------|2.--------------------------------------------------|3.--------------------------------------------------|4.-5---5-5-5-5-5---5-5-5-5-5---5-5-5---3-4-5-3-4-5--|5.-3---3-3-3-3-3---3-3-3-3-3---3-3-3----------------|6.--------------------------------------------------|
1.--------------------------------------------------|2.--------------------------------------------------|3.--------------------------------------------------|4.-7---7-7-7-7-7---7-7-7-7-7---7-7-7----------------|5.-5---5-5-5-5-5---5-5-5-5-5---5-5-5----------------|6.--------------------------------------------------|
ˇVen, acércate!1.-----------------------------------------------------|2.-----------------------------------------------------|3.-----------------------------------------------------|4.-7---7-4-5-7---7---7-5-7-9---9-9-7-5---5-5-5-5-------|5.-5---5-2-3-5---5---5-3-5-7---7-7-5-3---3-3-3-3-------|6.-----------------------------------------------------|
1.-----------------------------------------------------|2.-----------------------------------------------------|3.-----------------------------------------------------|4.-5-5-5-5---5-5-5-5---5-7-5-----------7---7---7-5-7-9-|5.-3-3-3-3---3-3-3-3---3-5-3-5-5-------5---5---5-3-5-7-|6.---------------------------3-3-3-0-1-----------------|
1.----------------------------------------------------|2.----------------------------------------------------|3.----------------------------------------------------|4.-9---9-7-5---5-5-5-5-5-5-5-5-5----------------------|5.-7---7-5-3---3-3-3-3-3-3-3-3-3----------------------|6.----------------------------------------------------|
1.-------------------------------------------------|2.-------------------------------------------------|3.-------------------------------------------------|4.-/14----18-17----17-16----16-15----15-14----14---|5.-----19-------18-------17-------16-------15------|6.-------------------------------------------------|
1.--------------------------------------------------|2.--------------------------------------------------|3.--------------------------------------------------|4.-/14----18-17----17-16----16-15----15-14----12(14-|5.-----19-------18-------17-------16-------15-------|6.--------------------------------------------------|
(guitarra acompańamiento)1.------------------------------------------------|2.------------------------------------------------|3.------------------------------------------------|4.-----0-1-2-----2-1-0-----0-1-2--5-7-------0-1-2-|5.-2---------2---------2----------3-5---2---------|6.-0-0-------0-0-------0-0--------------0-0-------|
1.-------------------------------------------|2.-------------------------------------------|3.-------------------------------------------|4.-----2-1-0------0-1-2--------------2-------|5.-2----------2----------2---5---5---0---2---|6.-0-0--------0-0--------0---3---3-------0---|
1.------------------------------------------------------|2.------------------------------------------------------|3.------------------------------------------------------|4.-----5------------------------------------------------|5.-7---3---5---7---7-7-7-7---7-7-7-7-----2-4-5-7--------|6.-5-------3---5---5-5-5-5---5-5-5-5-----0-2-3-5--------|
1.--------------------------------------------------|2.-(H)----------------------------------------------|3.-12-----------------------------------------------|4.-----12-10----10-12(14)-/19\----------------------|5.-----------12------------------------7-----7-10-7-|6.-----------------------------10-8-10---10---------|
1.-------------------------------10(12)-10(12)-12---|2.--------------------------------------------------|3.--------------------------------------------------|4.----7------7-10-7-10-12-12(14)--------------------|5.-10----10-----------------------------------------|6.--------------------------------------------------|
1.-12-12-12-14-12-15-12-17-12-15-12-12-12-12-12-14---|2.---------------------------------------------------|3.---------------------------------------------------|4.---------------------------------------------------|5.---------------------------------------------------|6.---------------------------------------------------|
1.-12-15-12-17-12-15-12-12-12-12-14-12-15-12-17-12-|2.-------------------------------------------------|3.-------------------------------------------------|4.-------------------------------------------------|5.-------------------------------------------------|6.-------------------------------------------------|
1.-15-12-12-12-12-14-12-15-12-17-12-15-12-12-12-12-|2.-------------------------------------------------|3.-------------------------------------------------|4.-------------------------------------------------|5.-------------------------------------------------|6.-------------------------------------------------|
1.-14-12-15-12-17-12-15-12-12-12-12-14-12-15-12-17-|2.-------------------------------------------------|3.-------------------------------------------------|4.-------------------------------------------------|5.-------------------------------------------------|6.-------------------------------------------------|
1.-12-15-12-12-12-12-14-12-12-15-12-17(18)-17----|2.-----------------------------------------------|3.-----------------------------------------------|4.-----------------------------------------------|5.-----------------------------------------------|6.-----------------------------------------------|
1.-----------------------------------------------|2.-----------------------------------------------|3.-----------------------------------------------|4.-14-14-14-16-16-16-17-17-17----------16-16-16--|5.----------------------------19-19-19-----------|6.-----------------------------------------------|
1.-----------------------------------------------|2.-----------------------------------------------|3.-----------16-16-16---19-19-19---19(21)---21---|4.-19-19-19--------------------------------------|5.-----------------------------------------------|6.-----------------------------------------------|
Violín1.----------------------------------------------------|2.-----13-15-13------------------13-15-13-------------|3.-/14----------16-14-12-14-/-14----------16-14-12-14-|4.----------------------------------------------------|5.----------------------------------------------------|6.----------------------------------------------------|
1.---------------------------------------------------|2.---------------------------------------------------|3.-12-11-9-12-11-9-12-11-9-12-11-9-14-12-11-12-12-11-|4.---------------------------------------------------|5.---------------------------------------------------|6.---------------------------------------------------|
1.-------------------------------------------------------|2.-------------------------------------------------------|3.-14-12-11-14-12-11-16-14-12-16-14-12-16-14-12-16-14-12-|4.-------------------------------------------------------|5.-------------------------------------------------------|6.-------------------------------------------------------|
1.------------------------------------------------------|2.-----------------------------------------------17-----|3.-17-16-14-17-16-14-17-16-14-17-16-14-19-17-19---------|4.------------------------------------------------------|5.------------------------------------------------------|6.------------------------------------------------------|
ˇVen, acércate!1.-----------------------------------------------------|2.-----------------------------------------------------|3.-----------------------------------------------------|4.-7---7-4-5-7---7---7-5-7-9---9-9-7-5---5-5-5-5-------|5.-5---5-2-3-5---5---5-3-5-7---7-7-5-3---3-3-3-3-------|6.-----------------------------------------------------|
1.-----------------------------------------------------|2.-----------------------------------------------------|3.-----------------------------------------------------|4.-5-5-5-5---5-5-5-5---5-7-5-----------7---7---7-5-7-9-|5.-3-3-3-3---3-3-3-3---3-5-3-5-5-------5---5---5-3-5-7-|6.---------------------------3-3-3-0-1-----------------|
1.-----------------------------------------------------|2.-----------------------------------------------------|3.-----------------------------------------------------|4.-9---9-7-5---5-5-5-5-5-5-5-5-5-----------------------|5.-7---7-5-3---3-3-3-3-3-3-3-3-3-----------------------|6.-----------------------------------------------------|
Ven acércate1.----------------------------------------------------|2.----------------------------------------------------|3.----------------------------------------------------|4.-9---9-6-7-9---9---9-7-9---11---11---11-9-7-7-7-7-7-|5.-7---7-4-5-7---7---7-5-7---9-----9----9-7-5-5-5-5-5-|6.----------------------------------------------------|
1.-------------------------------------------------|2.-------------------------------------------------|3.-------------------------------------------------|4.-7-7-7-7---7-7-7-7---7-9-7-----------------------|5.-5-5-5-5---5-5-5-5---5-7-5-7---7-----------------|6.---------------------------5---5---5-2-3---------|
1.-------------------------------------------------|2.-------------------------------------------------|3.-------------------------------------------------|4.-9---9---9-7-9---11---11---11---11-9-7---7-7-7-7-|5.-7---7---7-5-7---9-----9---9-----9-7-5---5-5-5-5-|6.-------------------------------------------------|
1.---------------------------------------------------|2.---------------------------------------------------|3.---------------------------------------------------|4.-7-7-7-7---7-7-7-7---7---2-----0-1-2---2-----2-1-0-|5.-5-5-5-5---5-5-5-5---5---0---0---------0---0-------|6.---------------------------------------------------|
1.-------------------------------|2.-------------------------------|3.-------------------------------|4.-2------0-1-2---5---5---7---2--|5.-0---0----------3---3---5---0--|6.-------------------------------|http://www.myspace.com/grupobarbarroja
perchintabs.blogspot.com
Tap to rate this tab
 
# A B C D E F G H I J K L M N O P Q R S T U V W X Y Z