Barenaked Ladies - Its All Been Done tab

 D  Dsus4--G  G6  A  D  Dsus4-G  G6  A

D	G        G6	      A
I met you before the fall of Rome
    D	      G     G6		    A
And I begged you to let me take you home
	   D	       Daug
You were wrong, I was right
	  Bm (2)	  D/C
You said goodbye, I said goodnight

G	       Bm
It's all been done
G		D
It's all been done

--3-2-0-2---------|------------------|------------------|------------------|------------------|------------------|
G Em A A7 It's all been done before
-2-0-2------------|------------------|------------------|------------------|------------------|------------------|
D G G6 A I knew you before the west was won D G G6 A And I heard you say the past was much more fun D Daug You go your way, I go mine Bm (2) D/C But I'll see you next time G Bm It's all been done G D It's all been done
--3-2-0-2---------|------------------|------------------|------------------|------------------|------------------|
G Em A A7 It's all been done before
-2-0-2------------|------------------|------------------|------------------|------------------|------------------|
D Daug Bm (2) And if I put my fingers here, and if I say D/C "I love you, dear" Daug Bm (2) And if I play the same three chords, D/C D Will you just yawn and say G Bm It's all been done G D It's all been done
--3-2-0-2---------|------------------|------------------|------------------|------------------|------------------|
G Em A A7 It's all been done before Solo:
----------------------------------------------------------------------------|-3--2---0------------------8--7--7------------------------------------------|------------------7-9-7---------------7-------------7-9-7-------------------|-------------7-9---------9---------------9-----7-9---------9----------------|----------------------------------------------------------------------------|----------------------------------------------------------------------------|
--------------------------------10-9----------10---12-----14------15--------|-8---7---7h5----------------10----------7-10-----------10-----10------------|----------------7--------9--------------------------------------------------|---------------------12-----------------------------------------------------|----------------------------------------------------------------------------|----------------------------------------------------------------------------|
-------14-----12------10-------12-14-12--12-10------------------------------|-15---------------15-------10----------10--------10-------------------------|-----------14---------------------------------------------------------------|----------------------------------------------------------------------------|----------------------------------------------------------------------------|----------------------------------------------------------------------------|
------------10-9-----------5------------------------------------------------|--------10--------12-10----7------------------------------------------------|-9h11----------------------7------------------------------------------------|----------------------------------------------------------------------------|----------------------------------------------------------------------------|----------------------------------------------------------------------------|
D Dsus4--G G6 A D Dsus4-G G6 A D G G6 A Alone and bored on a thirtieth-century night
--------0------------|----3---2------------|-2------2---4-2-0----|---------------------|---------------------|---------------------|
D G G6 A Will I see you on The Price Is Right? D Daug Will I cry? Will I smile? Bm (2) D As you run down the aisle? G Bm It's all been done G D It's all been done
--3-2-0-2-----------|--------------------|--------------------|--------------------|--------------------|--------------------|
G Em A It's all been done before G Bm It's all been done G D It's all been done
--3-2-0-2-----------|--------------------|--------------------|--------------------|--------------------|--------------------|
G A It's all been done G Bm It's all been done G D It's all been done
--3-2-0-2-----------|--------------------|--------------------|--------------------|--------------------|--------------------|
G A D It's all been done before Chords used:
D Dsus4 G G6 A Daug D/C Bm Em A7-2-------3------3-----3-----0-----2--------2-------2------0-----3-----------|-3-------3------3-----3-----2-----3--------3-------3------0-----2-----------|-2-------2------0-----0-----2-----3--------4-------4------0-----2-----------|----------------0-----2-----2----------------------4------2-----2-----------|----------------2-----2-----0----------------------2------2-----0-----------|----------------3-----------------------------------------0-----------------|
Tap to rate this tab
 
# A B C D E F G H I J K L M N O P Q R S T U V W X Y Z