Baroness - Bullheads Lament tab version 2

Bullhead’s Lament

As recorded by Baroness

(From the 2009 Blue Album)

Transcribed by ScreamOfSilence


Tuning: (D G C F A D)



|----------12--------------12-------------12--------------12-----||--------10--------------10-------------10--------------10-------||------10----10-------10-----10-------10----10--------10----10---||---12----------12-12-----------12-12----------12-12-----------12||----------------------------------------------------------------||----------------------------------------------------------------|
|
|----------------------------------------------------------------||----------------------------------------------------------------||----------------------------------------------------------------||-12~~~~---------------------------------------------------------||----------------------------------------------------------------||-10~~~~---------------------------------------------------------|With distortion
|----------12--------------12-------------12--------------12-----||--------10--------------10-------------10--------------10-------||------10----10-------10-----10-------10----10--------10----10---||---12----------12-12-----------12-12----------12-12-----------12||----------------------------------------------------------------||----------------------------------------------------------------|
|
|--------12------------12------------12------------12--------||------10--10--------10--10--------10--10--------10--10------||----10------10----10------10----10------10----10------10----||-12-----------12------------12------------12----------------||------------------------------------------------------------||------------------------------------------------------------|
|----------12--------------12-------------12--------------12-----||--------10--------------10-------------10--------------10-------||------10----10-------10-----10-------10----10--------10----10---||---12----------12-12-----------12-12----------12-12-----------12||----------------------------------------------------------------||----------------------------------------------------------------|
|
|--------12------------12------------12------------12--------||------10--10--------10--10--------10--10--------10--10------||----10------10----10------10----10------10----10------10----||-12-----------12------------12------------12----------------||------------------------------------------------------------||------------------------------------------------------------|
|------------------------------------------------------------||------------------------------------------------------------||-10~~----10-12--12H14~~--19-17-17h19~~-17--15-14~~----------||------------------------------------------------------------||------------------------------------------------------------||------------------------------------------------------------|
|
|-----------------------------------------------------------||-----------------------------------------------------------||------5-----5-----5-----5--------5-----5------5-----5------||----7-----7-----7-----7--------7-----7------7-----7--------||-8------8-----8------8-------8------8-----8------8---------||-----------------------------------------------------------|
|-----------------------------------------------------------||-----------------------------------------------------------||-10~~----10-9-------------------------------------7--9--10-||--------------10~~-----10-12-10~~--------------------------||------------------------------------------7h8--------------||-----------------------------------------------------------|
|
|-----------------------------------------------------------||-----------------------------------------------------------||------5-----5-----5-----5--------5-----5------7--9-7-------||----7-----7-----7-----7--------7-----7------7--------7-----||-8------8-----8------8-------8------8-----8----------------||-----------------------------------------------------------|
|----------------------------------------------------------------------||----------------------------------------------------------------------||10s14~-15p14------------------------9h10p9-7-9-7-9-9h10p9-7-9-7-9-10~~||-------------15-------------12-10-------------------------------------||----------------15----------------------------------------------------||-------------------15s17~~/-------------------------------------------|
|
|----------------------------------------------------------------------||----------------------------------------------------------------------||----------------------------19-17----17h19~~--17-----15-14~~----------||----------------------------------------------------------------------||----------------------------------------------------------------------||----------------------------------------------------------------------|
|
|-----------------------------------------------------------||-----------------------------------------------------------||------5-----5-----5-----5--------5-----5------5-----5------||----7-----7-----7-----7--------7-----7------7-----7--------||-8------8-----8------8-------8------8-----8------8---------||-----------------------------------------------------------|
|------------------------------------------------------10s8----------||------------------------------------------------10-11------10h11—10~||10~~-9h10p9------------------9-10-12---9-10-12----------------------||-----------10----------10-12----------------------------------------||-------------10-10s12~~---------------------------------------------||--------------------------------------------------------------------|
|
|--------------------------------------------------------------------||--------------------------------------------------------------------||--------------------------------------------------------------------||-------------------------------------------------7-8—12s10-7h8—7~---||-8~~-7h8p7--------------------7-8-10---7-8-10-----------------------||------------8-3--3s5~~-8--10----------------------------------------|
|
|-----------------------------------------------------------||-----------------------------------------------------------||------5-----5-----5-----5--------5-----5------7--9-7-------||----7-----7-----7-----7--------7-----7------7--------7-----||-8------8-----8------8-------8------8-----8----------------||-----------------------------------------------------------|
|----------------------------------------------------------------------||----------------------------------------------------------------------||14~-15p14---------------------------9h10p9-7-9-7-9-9h10p9-7-9-7-9-10~~||-------------15-------------12-10-------------------------------------||----------------15----------------------------------------------------||-------------------15s17~~/-------------------------------------------|
|
|----------------------------------------------------------------------||----------------------------------------------------------------------||----------------------------19-17----17h19~~--17-----15-14~~----------||----------------------------------------------------------------------||----------------------------------------------------------------------||----------------------------------------------------------------------|
|
|----------------------------------------------------------------------||----------------------------------------------------------------------||----------------------------------------------------------------------||-7~~-8p7--------------------------------------------------------------||-------------8-----------------------7h8p7-5-7-5-7-7h8p7-5-7-5-7-8~~--||----------------8---3s5~~/--10-8--------------------------------------|
|
|-----------------------------------------------------------||-----------------------------------------------------------||------5-----5-----5-----5--------5-----5------5-----5------||----7-----7-----7-----7--------7-----7------7-----7--------||-8------8-----8------8-------8------8-----8------8---------||-----------------------------------------------------------|
|------------------------------------------------------10s8----------||------------------------------------------------10-11------10h11—10~||10~~-9h10p9------------------9-10-12---9-10-12----------------------||-----------10----------10-12----------------------------------------||-------------10-10s12~~---------------------------------------------||--------------------------------------------------------------------|
|
|--------------------------------------------------------------------||--------------------------------------------------------------------||--------------------------------------------------------------------||-------------------------------------------------7-8—12s10-7h8—7~---||-8~~-7h8p7--------------------7-8-10---7-8-10-----------------------||------------8-3--3s5~~-8--10----------------------------------------|
|
|-----------------------------------------------------------||-----------------------------------------------------------||------5-----5-----5-----5--------5-----5------7--9-7-------||----7-----7-----7-----7--------7-----7------7--------7-----||-8------8-----8------8-------8------8-----8----------------||-----------------------------------------------------------|
|----------------------------------------------------------------------||----------------------------------------------------------------------||14~-15p14---------------------------9h10p9-7-9-7-9-9h10p9-7-9-7-9-10~~||-------------15-------------12-10-------------------------------------||----------------15----------------------------------------------------||-------------------15s17~~/-------------------------------------------|
|
|----------------------------------------------------------------------||----------------------------------------------------------------------||----------------------------19-17----17h19~~--17-----15-14~~----------||----------------------------------------------------------------------||----------------------------------------------------------------------||----------------------------------------------------------------------|
|
|----------------------------------------------------------------------||----------------------------------------------------------------------||----------------------------------------------------------------------||-7~~-8p7--------------------------------------------------------------||-------------8-----------------------7h8p7-5-7-5-7-7h8p7-5-7-5-7-8~~--||----------------8---3s5~~/--10-8--------------------------------------|
|
|----------------------------------------------------------------------||18—19p18--------------------------------------------------------------||-------------17-------------------------------------------------------||----------------17—17s19----------------------------------------------||----------------------------------------------------------------------||----------------------------------------------------------------------|
|
|-----------------------------------------------------------||-----------------------------------------------------------||------5-----5-----5-----5--------5-----5------5-----5------||----7-----7-----7-----7--------7-----7------7-----7--------||-8------8-----8------8-------8------8-----8------8---------||-----------------------------------------------------------|
|------------------------------------------------------10s8----------||------------------------------------------------10-11------10h11—10~||10~~-9h10p9------------------9-10-12---9-10-12----------------------||-----------10----------10-12----------------------------------------||-------------10-10s12~~---------------------------------------------||--------------------------------------------------------------------|
|
|--------------------------------------------------------------------||--------------------------------------------------------------------||--------------------------------------------------------------------||-------------------------------------------------7-8—12s10-7h8—7~---||-8~~-7h8p7--------------------7-8-10---7-8-10-----------------------||------------8-3--3s5~~-8--10----------------------------------------|
|
|-----------------------------------------------------------||-----------------------------------------------------------||------5-----5-----5-----5--------5-----5------7--9-7-------||----7-----7-----7-----7--------7-----7------7--------7-----||-8------8-----8------8-------8------8-----8----------------||-----------------------------------------------------------|
|----------12--------------12-------------12--------------12-----||--------10--------------10-------------10--------------10-------||------10----10-------10-----10-------10----10--------10----10---||---12----------12-12-----------12-12----------12-12-----------12||----------------------------------------------------------------||----------------------------------------------------------------|
|
|--------12------------12------------12------------12--------||------10--10--------10--10--------10--10--------10--10------||----10------10----10------10----10------10----10------10----||-12-----------12------------12------------12----------------||------------------------------------------------------------||------------------------------------------------------------|
|----------12--------------12-------------12--------------12-----||--------10--------------10-------------10--------------10-------||------10----10-------10-----10-------10----10--------10----10---||---12----------12-12-----------12-12----------12-12-----------12||----------------------------------------------------------------||----------------------------------------------------------------|
|
|--------12------------12------------12------------12--------||------10--10--------10--10--------10--10--------10--10------||----10------10----10------10----10------10----10------10----||-12-----------12------------12------------12----------------||------------------------------------------------------------||------------------------------------------------------------|
|-10~~~~--------------------------------------||--8~~~~--------------------------------------||--8~~~~--------------------------------------||-10~~~~--------------------------------------||---------------------------------------------||---------------------------------------------|
Have fun.
Tap to rate this tab
 
# A B C D E F G H I J K L M N O P Q R S T U V W X Y Z