Bathory – Twilight Of The Gods - Epilogue tab

Amo esta canción...
ojala algún día aparezca el tab completo.
I love this song ...
hopefully someday see the full tab.

Gracias a gibbsthyron por subir su Cover a youtube,
a traves del video intente dejarlo lo más similar posible
http://youtu.be/LwT9jc-xIt4
Thanks to gibbsthyron for upload his Cover on youtube,
through the video try to make it as similar as possible

Tuning: D,A,D,G,B,E
Legend:
h = Hammer-On
P = Pull-Off
/ = Slide

| x2 | x2 ||---------1-------0---------------|---------3-------1-------0-------||-------3---3-------3-----3-------|-------3---3-------3-------3---3-||-----2-------2-------2-----2---2-|-----3-------3-------3-------3---||---0-----------0-------0-----0---|---0-----------0-------0---------||---------------------------------|---------------------------------||-0-------------------------------|-0-------------------------------|
| x2 | x1 ||---------1-------0---------------|---------3-------1-------0-------||-------3---3-------3-----3-------|-------3---3-------3-------3---3-||-----2-------2-------2-----2---2-|-----3-------3-------3-------3---||---0-----------0-------0-----0---|---0-----------0-------0---------||---------------------------------|---------------------------------||-0-------------------------------|-0-------------------------------|
|---------3-------1-------0------------||-------3---3-------3-----1-h3--3------||-----3-------3-------3---0-h2--2---0--||---0-----------0-------0-0-----0------||-------------------------0------------||-0------------------------------------|
|---------1---------------0---------------1---------------0-------||-------3-----3-------3-------3-------3-------3-------3-----3---3-||-----2-----2-------2---2---2---2---2---2---2---2---2---2-----2---||---0-----------0-0---------------0---------------0---------------||-----------------------------------------------------------------||-0---------------------------------------------------------------|
h p|---------0---1---3---1---010-------0------------||-----3-----------------------3---3-1-h3--3------||---2---2---2---2---2---2-------2---0-h2--2---0--||-0---------------------------------0-----0------||-----------------------------------0------------||------------------------------------------------|
|---------1---------------1---------||-------3-----3-------3-------3-----||-----2-----2-------2---2---2---2---||---0-----------0-0-----------------||-----------------------------------||-0---------------------------------|
|---------1---------------0---------------1---------------0-------||-----3-------3-------3-----3---3-----3-----3---------3-----3---3-||-------2---2---2---2---2-----2-----2---2-----2-----2---2-----2---||---0-------------0---------------0-------------0-0---------------||-----------------------------------------------------------------||-0---------------------------------------------------------------|
|---------3---------------6---6-/8-----------8--------||-----3-----3---3-----3-------3-/5---------5-----5----||---3---3-----3-----3---3---3-3-/5-------5-----5---5--||-0---------------0-----------0--------0--------------||-----------------------------------------------------||------------------------------------0----------------|
|---------10-------10------10--------||-------6----6---6---6---6---6---6---||-----7--------7-------7-------7-----||---0--------------------------------||------------------------------------||-0----------------------------------|
|---------10--------------8---------------7---------------6-------||-----6-------6-------6-------6-------6-----6---6-----6-----6---6-||---7---7---7---7---7---7---7---7---7---7-----7-----7---7-----7---||-0---------------0---------------0---------------0---------------||-----------------------------------------------------------------||-----------------------------------------------------------------|
|---------1---------------0---------------1---------------0-------||-------3-----3-------3-------3-------3-----3---3-----3-------3---||-----2-----2---2---2---2---2---2---2---2-----2-----2---2---2---2-||---0-------------0---------------0---------------0---------------||-----------------------------------------------------------------||-0---------------------------------------------------------------|
|---------0---------------0---------------0----------||-------3---3-----------3-----3-------2-------2------||-----2-------2-------2-----2---2---2---2---2---2----||---2-----------2---2-----------------------------2--||-0---------------0---------------0------------------||----------------------------------------------------|
|-0--1--3-----1---0------||-2-----3--2--3----------||-2-----2-----2------2---||-2-----2-----0----------||-0----------------------||------------------------|
h p h p|-0h1---------0h1-------3---131----0h1---------0h1-------3---131----||-3---3-----------3------------3---3---3-----------3------------3---||-2-----2---2---------2----------2-0-----0---0---------0----------0-||-0-------0---------0--------------0--------------------------------||-0--------------------------------3-------3---------3--------------||-0--------------------------------0--------------------------------|
h p|-0h1---------0h1-------3---131----------1-------1-------1---------||-3---3-----------3------------3-----3-------3-------3-------3-----||-0-----0---0----------0---------------3---3---3---3---3---3---3---||-0--------------------------------------------------------------0-||-2-------2---------2------------0-1-------------------------------||-0----------------------------------------------------------------|
|------------0-------------------||----2---3-------2---------------||------2---2---2-----3---2-------||--2---------------2---2-----3---||0-------------------------0-----||--------------------------------|
h p h p|-0h1---------0h1-------3---131----0h1---------0h1-------3---131----||-3---3-----------3------------3---3---3-----------3------------3---||-2-----2---2---------2----------2-0-----0---0---------0----------0-||-0-------0---------0--------------0--------------------------------||-0--------------------------------3-------3---------3--------------||-0--------------------------------0--------------------------------|
h p|-0h1---------0h1-------3---131----------1-------1-------1---------||-3---3-----------3------------3-----3-------3-------3-------3-----||-0-----0---0----------0---------------3---3---3---3---3---3---3---||-0--------------------------------------------------------------0-||-2-------2---------2------------0-1-------------------------------||-0----------------------------------------------------------------|
|-------------0--------------------1----------------||-----2---3-------2----------------3----------------||-------2---2---2-----3---2--------2----------------||---2---------------2---2-----3-2--0----------------||-0-------------------------0------0----------------||----------------------------------0----------------|
Cualquier error haganlo saber. Any error let me know.
Please rate this tab:
x1.0