Bathory – 13 Candles tab

                        BATHORY - 13 CANDLES



                        From Under The Sign Of The Black Mark

Material copyrighted, for personal use only.



Interpreted and transcribed by Emmett Rees,

e-mail arca5@yahoo.com with comments and corrections

or for info on my music Lunar Gate.

|--------------------------------------------||--------------------------------------------||--------------------6-----------------------||--5--7--6--8--5--7--6-----------------------| X 4|--3--5--4--6--3--5--4-----------------------||--------------------------------------------|
Born a child of the underworld....
|--------------------------------------------||--------------------------------------------||--------------------------------------------||-----5--4--2--------------------------------| X 3|--2--3--2--0--5--4--5--7--------------------||--0-----------3--2--3--5--------------------|
|--------------------------------------------||--------------------------------------------||--------------------------------------------||-----5--4--2--------------------------------||--2--3--2--0--5--5--4-----------------------||--0-----------3--3--2-----------------------|
|--------------------------------------------||--------------------------------------------||--------------------6-----------------------||--5--7--6--8--5--7--6-----------------------| X 4|--3--5--4--6--3--5--4-----------------------||--------------------------------------------|
|--------------------------------------------||--------------------------------------------||-----6--5-----------------------------------||-----6--5-----------------------------------| X 4|--2--4--3-----------------------------------||--0-----------------------------------------|
All notes muted, vocals during this part are continuous screams....
|-----------------------------------------------||-----------------------------------------------||-----------------------------------------------||-----------------------------------------------| X 8|--4--2--2--2--4--2--2--2--4--2--2--2--4--3-----||--2--0--0--0--2--0--0--0--2--0--0--0--2--1-----|
|--------------------------------------------||--------------------------------------------||--------------------6-----------------------||--5--7--6--8--5--7--6-----------------------| X 4|--3--5--4--6--3--5--4-----------------------||--------------------------------------------|
Born a child of the underworld....
|--------------------------------------------||--------------------------------------------||--------------------------------------------||-----5--4--2--------------------------------| X 3|--2--3--2--0--5--4--5--7--------------------||--0-----------3--2--3--5--------------------|
|--------------------------------------------||--------------------------------------------||--------------------------------------------||-----5--4--2-----7--9-----------------------||--2--3--2--0--5--5--7-----------------------||--0-----------3-----------------------------|
Scrape strings.....
|--------------------------------------------||--------------------------------------------||--------------------6-----------------------||--5--7--6--8--5--7--6-----------------------| X 2|--3--5--4--6--3--5--4-----------------------||--------------------------------------------|
Born a child of the underworld....
|--------------------------------------------||--------------------------------------------||--------------------------------------------||-----5--4--2--------------------------------| X 3|--2--3--2--0--5--4--5--7--------------------||--0-----------3--2--3--5--------------------|
|--------------------------------------------||--------------------------------------------||--------------------------------------------||-----5--4--2-----7--9-----------------------||--2--3--2--0--5--5--7-----------------------||--0-----------3-----------------------------|
Timing and strummming is not noted here, you'll pick it from the LP....
Please rate this tab:
x1.0