Bayside - A Call To Arms tab version 1

A Call to Arms - Shudder - Bayside

idk, this is just the intro, I plan on finishing the song, bass included.

so wait if you can, or just build off of this.

rate, please and thank you



 Intro
  Q=110

Gtr I|------------------|------------------||------------------|------------------||------------------|------------------||---4---4---4---4--|---4---4---4---4--||-2---2---2---2----|-0---0---0---0----||------------------|------------------|
|------------------|------------------||------------------|------------------||------------------|------------------||---4---4---4---4--|---4---4---4---4--||------------------|------------------||-4---4---4---4----|-3---3---3---3----|
|
|-------------------|--------------------||-------------------|--------------------||-------------------|--------------------||---4----4---4----4-|----4----4---4----4-||-2----2---2----2---|-0----0----0---0----||-------------------|--------------------|
| , IV|-------------------|-----------------|||-------------------|-----------------|||-------------------|--4---4--4-4-4-4-|||---4---4---4---4---|--5---5--5-5-5-5-|||-------------------|--5---5--5-5-5-5-|||-4---4---4---4-----|--3---3--3-3-3-3-||
Gtr I|-----------------------|---------------------||-----------------------|---------------------||-11-11-9-9-14-14-14-14-|-7-7-6-6-11-11-11-11-||--x--x-x-x--x--x--x--x-|-x-x-x-x--x--x--x--x-||--9--9-7-7-12-12-12-12-|-5-5-4-4--9--9--9--9-||-----------------------|---------------------|
|
| Gtr II|--------------------|---------------------||--------------------|---------------------||-----------7-7------|---------------------||--9-9--7-7-7-7--7-7-|-5-5--4-4--9-9--9--9-||--9-9--7-7-5-5--7-7-|-5-5--4-4--9-9--9--9-||--7-7--5-5------5-5-|-3-3--2-2--7-7--7--7-|
|-------------------------|--------------------------||-------------------------|--------------------------||-14-14-14-14-16-16-16-16-|-11-11-11-11-11-11-11-11--||--x--x--x--x--x--x--x--x-|--x--x--x--x--x--x--x--x--||-12-12-12-12-14-14-14-14-|--9--9--9--9--9--9--9--9--||-------------------------|--------------------------|
|
|-------------------------|--------------------------||-------------------------|--------------------------||--7--7--7--7--9--9--9--9-|-11-11-11-11-11-11-11-11--||--7--7--7--7--9--9--9--9-|--x--x--x--x--x--x--x--x--||--5--5--5--5--7--7--7--7-|--9--9--9--9--9--9--9--9--||-------------------------|--------------------------|
|-----------------------|---------------------||-----------------------|---------------------||-11-11-9-9-14-14-14-14-|-7-7-6-6-11-11-11-11-||--x--x-x-x--x--x--x--x-|-x-x-x-x--x--x--x--x-||--9--9-7-7-12-12-12-12-|-5-5-4-4--9--9--9--9-||-----------------------|---------------------|
|
|-----------------------|---------------------||-----------------------|---------------------||------------7--7-------|---------------------||--9--9-7-7--7--7--7--7-|-5-5-4-4--9--9--9--9-||--9--9-7-7--5--5--7--7-|-5-5-4-4--9--9--9--9-||--7--7-5-5--------5--5-|-3-3-2-2--7--7--7--7-|
|-------------------------|--------------------------||-------------------------|--------------------------||-14-14-14-14-16-16-16-16-|-11-11-11-11-11-11-11-11--||--x--x--x--x--x--x--x--x-|--x--x--x--x--x--x--x--x--||-12-12-12-12-14-14-14-14-|--9--9--9--9--9--9--9--9--||-------------------------|--------------------------|
|
|-------------------------|--------------------------||-------------------------|--------------------------||--7--7--7--7--9--9--9--9-|-11-11-11-11-11-11-11-11--||--7--7--7--7--9--9--9--9-|--x--x--x--x--x--x--x--x--||--5--5--5--5--7--7--7--7-|--9--9--9--9--9--9--9--9--||-------------------------|--------------------------|
*************************************************************************************** * Generated using Power Tab Editor by Brad Larsen - http://powertab.guitarnetwork.org * ***************************************************************************************
Tap to rate this tab
 
# A B C D E F G H I J K L M N O P Q R S T U V W X Y Z