Bb Brunes - Dis-moi tab

Intro

-9--9----9--9----10-0---9--9--9--|-10-10---9--9----10-0---9--9--9--|-11-11---10-10---11-11--10-10-10-|-11-11---11-11---12-12--11-11-11-|-9--9----11-11---12-12--11-11-11-|-9--9----9--9----10-0---9--9--9--| (x4)
-7---10-9--|-7---10-9--|-8---11-10-|-9---12-11-|-9---12-11-|-7---10-9--|
Chorus
-9--9----9--9----10-0---9--9--9--|-10-10---9--9----10-0---9--9--9--|-11-11---10-10---11-11--10-10-10-|-11-11---11-11---12-12--11-11-11-|-9--9----11-11---12-12--11-11-11-|-9--9----9--9----10-0---9--9--9--|
-9--9----5-5---10-0---9--9--9--|-10-10---5-5---10-0---9--9--9--|-11-11---6-6---11-11--10-10-10-|-11-11---7-7---12-12--11-11-11-|-9--9----7-7---12-12--11-11-11-|-9--9----5-5---10-0---9--9--9--|
-9--9----9--9----10-0---9--9--9-----5---9--|-10-10---9--9----10-0---9--9--9-----5---9--|-11-11---10-10---11-11--10-10-10----6---10-|-11-11---11-11---12-12--11-11-11----7---11-|-9--9----11-11---12-12--11-11-11----7---11-|-9--9----9--9----10-0---9--9--9-----5---9--|
Couplet ( Basse ) and(during the end of the basse) :
-5-5-5-5-5-5- ----9----9----7----5-5-5-5- -7---10-9--|-7-7-7-7-7-7- ----10---9----9----7-7-7-7- -7---10-9--|-7-7-7-7-7-7- And then ----11---10---9----7-7-7-7- -8---11-10-|-7-7-7-7-7-7- ----11---11---9----7-7-7-7- -9---12-11-|-5-5-5-5-5-5- ----9----11---7----5-5-5-5- -9---12-11-|-5-5-5-5-5-5- ----9----9----7----5-5-5-5- x3 -7---10-9--|
Chorus
-9--9----9--9----10-0---9--9--9--|-10-10---9--9----10-0---9--9--9--|-11-11---10-10---11-11--10-10-10-|-11-11---11-11---12-12--11-11-11-|-9--9----11-11---12-12--11-11-11-|-9--9----9--9----10-0---9--9--9--|
-9--9----5-5---10-0---9--9--9--|-10-10---5-5---10-0---9--9--9--|-11-11---6-6---11-11--10-10-10-|-11-11---7-7---12-12--11-11-11-|-9--9----7-7---12-12--11-11-11-|-9--9----5-5---10-0---9--9--9--|
-9--9----9--9----10-0---9--9--9-----5---9--|-10-10---9--9----10-0---9--9--9-----5---9--|-11-11---10-10---11-11--10-10-10----6---10-|-11-11---11-11---12-12--11-11-11----7---11-|-9--9----11-11---12-12--11-11-11----7---11-|-9--9----9--9----10-0---9--9--9-----5---9--|
Solo -Guitare 1 : (accompagnement)
-9--9----9--9----10-0---9--9--9--|-10-10---9--9----10-0---9--9--9--|-11-11---10-10---11-11--10-10-10-|-11-11---11-11---12-12--11-11-11-| x8-9--9----11-11---12-12--11-11-11-|-9--9----9--9----10-0---9--9--9--|
-Guitare 2 :
--------------------------------------------------------|-12b14-12--10-12--10-10-12----12b14-12--10-12-10--------|-------------------------------------------------11-11--|--------------------------------------------------------|--------------------------------------------------------|--------------------------------------------------------|
--------------------------------------------------------|-12b14-12--10-12--10-10-12----12b14-12--10-12-10--------|-------------------------------------------------11-11--|--------------------------------------------------------|--------------------------------------------------------|--------------------------------------------------------|
--------------------------------------------------------|----10-----10---12b13b12--10--12b13b12--10---12--10-----|-11-----11----------------------------------------------|--------------------------------------------------------|--------------------------------------------------------|--------------------------------------------------------|
--------------------------------------|----10-----10---12b13b12--10----------|-11-----11-------------------11-11----|--------------------------------------|--------------------------------------|--------------------------------------|
--------------------------------------------------------|-12b14-12--10-12--10-10-12----12b14-12--10-12-10--------|-------------------------------------------------11-11--|--------------------------------------------------------|--------------------------------------------------------|--------------------------------------------------------|
( Basse ) 2x , then :
-5-5-5-5-5-5- ----9----9----7----5-5-5-5----7---10-9--|-7-7-7-7-7-7- ----10---9----9----7-7-7-7----7---10-9--|-7-7-7-7-7-7- And then ----11---10---9----7-7-7-7----8---11-10-|-7-7-7-7-7-7- ----11---11---9----7-7-7-7----9---12-11-|-5-5-5-5-5-5- ----9----11---7----5-5-5-5----9---12-11-|-5-5-5-5-5-5- ----9----9----7----5-5-5-5----7---10-9--|
Chorus
-9--9----9--9----10-0---9--9--9--|-10-10---9--9----10-0---9--9--9--|-11-11---10-10---11-11--10-10-10-|-11-11---11-11---12-12--11-11-11-|-9--9----11-11---12-12--11-11-11-|-9--9----9--9----10-0---9--9--9--|
X3-9--9----5-5---10-0---9--9--9--|-10-10---5-5---10-0---9--9--9--|-11-11---6-6---11-11--10-10-10-|-11-11---7-7---12-12--11-11-11-|-9--9----7-7---12-12--11-11-11-|-9--9----5-5---10-0---9--9--9--|
Outro:
-9--9----9--9----10-0---9--9--9-----5----9------X--|-10-10---9--9----10-0---9--9--9-----5----9------X--|-11-11---10-10---11-11--10-10-10----6----10-----X--|-11-11---11-11---12-12--11-11-11----7----11-----11-|-9--9----11-11---12-12--11-11-11----7----11-----9--|-9--9----9--9----10-0---9--9--9-----5----9------9--|
Tap to rate this tab
 
# A B C D E F G H I J K L M N O P Q R S T U V W X Y Z