Beatallica – A Garage Dayz Night tab

A Garage Dayz Night                               


Krk
                                                                             
E||------------------||---------------------------|-------------------------|B||------------------||---------------------------|-------------------------|G||------------------||*-----------------5--------|-------------------------|D||------------------||*--5----5---------5-----5--|------5------------5-----|A||------------------||---5----5--3-3-3--3--3--5--|------5------------5-----|E||------------------||---3----3---------------3--|------3--3-3-3--3--3--3--|
--------------------------|-------------------------|--------------------------|--------------------------|-------------------------|--------------------------|--------------------------|-------------------------|-----------------5--------|--3----3---------3-----5--|------5------------5-----|--5----5---------5-----5--|--3----3---------3-----5--|------5------------5-----|--5----5--3-3-3--3--3--5--|--1----1--1-1-1--1--1--3--|------3--3-3-3--3--3--3--|--3----3---------------3--|
-------------------------|--------------------------|-------------------------|-------------------------|--------------------------|-------------------------|-------------------------|--------------------------|-------------------------|------5------------5-----|--3----3---------3-----5--|------5------------5-----|------5------------5-----|--3----3---------3-----5--|------5------------5-----|------3--3-3-3--3--3--3--|--1----1--1-1-1--1--1--3--|------3--3-3-3--3--3--3--|
-------------------------|-------------------------|--------------------------|-------------------------|-------------------------|--------------------------|--5---------5----5--5----|--7---------7----7--7----|-----------------5--------|--5---------5----5--5----|--7---------7----7--7----|--5----5---------5-----5--|--3--3-3-3--3----3--3----|--5--5-5-5--5----5--5----|--5----5--3-3-3--3--3--5--|-------------------------|-------------------------|--3----3---------------3--|
--------------------------||--------------------------|--------------------------||--------------------------|-------------------------*||--4--4--4--4--4--4--4--4--|------5------------5-----*||--4--4--4--4--4--4--4--4--|------5------------5------||--2--2--2--2--2--2--2--2--|------3--3-3-3--3--3--3---||--------------------------|
--------------------------|--------------------------|--------------------------|--------------------------|--------------------------|--4--4--4--4--4--4--4--3--|--2--2--2--2--2--2--2--2--|--4--4--4--4--4--4--4--3--|--2--2--2--2--2--2--2--2--|--2--2--2--2--2--2--2--1--|--0--0--0--0--0--0--0--0--|--------------------------|
--------------------------|--------------------------|--------------------------|--------------------------|--4--4--4--4--4--4--4--4--|--5--5--5--5--5--5--5--5--|--4--4--4--4--4--4--4--4--|--5--5--5--5--5--5--5--5--|--2--2--2--2--2--2--2--2--|--3--3--3--3--3--3--3--3--|--------------------------|--------------------------|
--------------------------|--------------------------|--------------------------|--------------------------|--2--2--2--2--2--2--2--2--|--7--7--7--7--7--7--7--7--|--2--2--2--2--2--2--2--2--|--7--7--7--7--7--7--7--7--|--0--0--0--0--0--0--0--0--|--5--5--5--5--5--5--5--5--|--------------------------|--------------------------|
--------------------------|--------------------------|-------------------------|--------------------------|--------------------------|-------------------------|--7--7--7--7--7--7--7--7--|-----------------5--------|-------------------------|--7--7--7--7--7--7--7--7--|--5----5---------5-----5--|------5------------5-----|--5--5--5--5--5--5--5--5--|--5----5--3-3-3--3--3--5--|------5------------5-----|--------------------------|--3----3---------------3--|------3--3-3-3--3--3--3--|
--------------------------|-------------------------|--------------------------|--------------------------|-------------------------|--------------------------|--------------------------|-------------------------|-----------------5--------|--3----3---------3-----5--|------5------------5-----|--5----5---------5-----5--|--3----3---------3-----5--|------5------------5-----|--5----5--3-3-3--3--3--5--|--1----1--1-1-1--1--1--3--|------3--3-3-3--3--3--3--|--3----3---------------3--|
-------------------------|--------------------------|-------------------------|-------------------------|--------------------------|-------------------------|-------------------------|--------------------------|-------------------------|------5------------5-----|--3----3---------3-----5--|------5------------5-----|------5------------5-----|--3----3---------3-----5--|------5------------5-----|------3--3-3-3--3--3--3--|--1----1--1-1-1--1--1--3--|------3--3-3-3--3--3--3--|
-------------------------|-------------------------|--------------------------|-------------------------|-------------------------|--------------------------|--5---------5----5--5----|--7---------7----7--7----|-----------------5--------|--5---------5----5--5----|--7---------7----7--7----|--5----5---------5-----5--|--3--3-3-3--3----3--3----|--5--5-5-5--5----5--5----|--5----5--3-3-3--3--3--5--|-------------------------|-------------------------|--3----3---------------3--|
-------------------------|--------------------------|-------------------------|-------------------------|--------------------------|-------------------------|-------------------------|-----------------5--------|-------------------------|------5------------5-----|--5----5---------5-----5--|------5------------5-----|------5------------5-----|--5----5--3-3-3--3--3--5--|------5------------5-----|------3--3-3-3--3--3--3--|--3----3---------------3--|------3--3-3-3--3--3--3--|
--------------------------|-------------------------|--------------------------|--------------------------|-------------------------|--------------------------|--------------------------|-------------------------|-----------------5--------|--3----3---------3-----5--|------5------------5-----|--5----5---------5-----5--|--3----3---------3-----5--|------5------------5-----|--5----5--3-3-3--3--3--5--|--1----1--1-1-1--1--1--3--|------3--3-3-3--3--3--3--|--3----3---------------3--|
-------------------------|--------------------------|-------------------------|-------------------------|--------------------------|-------------------------|-------------------------|--------------------------|-------------------------|------5------------5-----|--3----3---------3-----5--|------5------------5-----|------5------------5-----|--3----3---------3-----5--|------5------------5-----|------3--3-3-3--3--3--3--|--1----1--1-1-1--1--1--3--|------3--3-3-3--3--3--3--|
-------------------------|-------------------------|--------------------------|-------------------------|-------------------------|--------------------------|--5---------5----5--5----|--7---------7----7--7----|-----------------5--------|--5---------5----5--5----|--7---------7----7--7----|--5----5---------5-----5--|--3--3-3-3--3----3--3----|--5--5-5-5--5----5--5----|--5----5--3-3-3--3--3--5--|-------------------------|-------------------------|--3----3---------------3--|
-------------------------|--------------------------|--------------------------|-------------------------|--------------------------|--------------------------|-------------------------|--4--4--4--4--4--4--4--4--|--------------------------|------5------------5-----|--4--4--4--4--4--4--4--4--|--2--2--2--2--2--2--2--2--|------5------------5-----|--2--2--2--2--2--2--2--2--|--2--2--2--2--2--2--2--2--|------3--3-3-3--3--3--3--|--------------------------|--0--0--0--0--0--0--0--0--|
--------------------------|--------------------------|--------------------------|--------------------------|--4--4--4--4--4--4--4--3--|--4--4--4--4--4--4--4--4--|--4--4--4--4--4--4--4--3--|--4--4--4--4--4--4--4--4--|--2--2--2--2--2--2--2--1--|--2--2--2--2--2--2--2--2--|--------------------------|--------------------------|
--------------------------|--------------------------|--------------------------|--------------------------|--5--5--5--5--5--5--5--5--|--2--2--2--2--2--2--2--2--|--5--5--5--5--5--5--5--5--|--2--2--2--2--2--2--2--2--|--3--3--3--3--3--3--3--3--|--0--0--0--0--0--0--0--0--|--------------------------|--------------------------|
--------------------------|--------------------------|--------------------------|--------------------------|--7--7--7--7--7--7--7--7--|--7--7--7--7--7--7--7--7--|--7--7--7--7--7--7--7--7--|--7--7--7--7--7--7--7--7--|--5--5--5--5--5--5--5--5--|--5--5--5--5--5--5--5--5--|--------------------------|--------------------------|
--------------------------|-------------------------|--------------------------|--------------------------|-------------------------|--------------------------|-----------------5--------|-------------------------|--------------------------|--5----5---------5-----5--|------5------------5-----|--3----3---------3-----5--|--5----5--3-3-3--3--3--5--|------5------------5-----|--3----3---------3-----5--|--3----3---------------3--|------3--3-3-3--3--3--3--|--1----1--1-1-1--1--1--3--|
-------------------------|--------------------------|-------------------------|-------------------------|--------------------------|-------------------------|-------------------------|-----------------5--------|-------------------------|------5------------5-----|--5----5---------5-----5--|------5------------5-----|------5------------5-----|--5----5--3-3-3--3--3--5--|------5------------5-----|------3--3-3-3--3--3--3--|--3----3---------------3--|------3--3-3-3--3--3--3--|
--------------------------|-------------------------|-------------------------|--------------------------|-------------------------|-------------------------|--------------------------|-------------------------|--5---------5----5--5----|--3----3---------3-----5--|------5------------5-----|--5---------5----5--5----|--3----3---------3-----5--|------5------------5-----|--3--3-3-3--3----3--3----|--1----1--1-1-1--1--1--3--|------3--3-3-3--3--3--3--|-------------------------|
-------------------------|--------------------------|-------------------------|-------------------------|--------------------------|-------------------------|--7---------7----7--7----|-----------------5--------|-------------------------|--7---------7----7--7----|--5----5---------5-----5--|------5------------5-----|--5--5-5-5--5----5--5----|--5----5--3-3-3--3--3--5--|------5------------5-----|-------------------------|--3----3---------------3--|------3--3-3-3--3--3--3--|
--------------------------|-------------------------|-------------------------|--------------------------|-------------------------|-------------------------|-----------------5--------|-------------------------|-----------------5--5----|--5----5---------5-----5--|------5------------5-----|--5----5---------5--5----|--5----5--3-3-3--3--3--5--|------5------------5-----|--5----5--3-3-3--3--3----|--3----3---------------3--|------3--3-3-3--3--3--3--|--3----3-----------------|
-------------------|------------------||-------------------|------------------||-------------------|------------------||--3----------------|------------------||--3----------------|------------------||--1----------------|------------------||
Please rate this tab:
x1.0