Beatsteaks - To Be Strong tab

Intro

|-------0-00-0-00-333-2--222-||-------0-00-1-11-333-3--333-||-------0-00-0-00-000-2--222-| x1|-x-x-x-2-22-2-22-000-0--000-||-x-x-x-2-22-3-33-222--------||-x-x-x-0-00------333--------|
Intro/Verse
|-3-33-3-33-3-33-2--222-||-3-33-3-33-3-33-3--333-||-0-00-0-00-0-00-2--222-| x13|-x-xx-2-22-0-00-0--000-||-2-22-3-33-2-22--------||-----------3-33--------|
Pre-Chorus
|-22222222222222222222222222222222-||-33333333333333333333333333333333-||-22222222222222222222222222222222-||-00000000000000000000000000000000-||----------------------------------||----------------------------------|
Verse
|----0-00-0-00-333-2--222-||----0-00-1-11-333-3--333-||----0-00-0-00-000-2--222-| x4|----2-22-2-22-000-0--000-||----2-22-3-33-222--------||----0-00------333--------|
Pre-Chorus
|-3-33-3-33-2--22-222--3-33-3-33-333-2--222-||-3-33-3-33-3--33-333--3-33-3-33-333-3--333-||-0-00-0-00-2--22-222--0-00-0-00-000-2--222-||-x-xx-2-22-0--00-000--x-xx-2-22-xxx-0--000-||-2-22-3-33------------2-22-3-33-222--------||-------------------------------------------|
|-3-33-3-33-333-0--000-00000000---------||-3-33-3-33-333-2--222-22222222---------||-0-00-0-00-000-2--222-22222222---------||-x-xx-2-22-000-2--222-22222222---------||-2-22-3-33-222-0--000-00000000---------||-----------333----------------33332222-|
Chorus
|----0-00-0-00-333-2--222-||----0-00-1-11-333-3--333-||----0-00-0-00-000-2--222-| x4|----2-22-2-22-000-0--000-||----2-22-3-33-222--------||----0-00------333--------|
Solo (2nd Guitar plays Chorus)
|-7-7-10-7--77-10-10--7-7-10-7--77-10-10-||----8--------8------8-8-8--------8------||----------------------------------------| x2|----------------------------------------||----------------------------------------||----------------------------------------|
|----------------------------------------||-5--5--5--5--7-8-7--8-7-0~~~~~~~--------||----------------------------------------||----------------------------------------||----------------------------------------||----------------------------------------|
repeat Verse Bridge
PM...........................................||-----------------------------------------333-0--000-00000000---------||-----------------------------------------333-2--222-22222222---------||-4444555577777777444455554447777744445555444-2--222-22222222---------||-4444555577777777444455554447777744445555555-2--222-22222222---------||-2222333355555555222233332225555522223333555-0--000-00000000---------||-----------------------------------------333----------------33332222-|
Chorus
end on |-3~~~~~~~~~~~~~~~~-||-3~~~~~~~~~~~~~~~~-||-0~~~~~~~~~~~~~~~~-||-0~~~~~~~~~~~~~~~~-||-2~~~~~~~~~~~~~~~~-||-3~~~~~~~~~~~~~~~~-|
Tap to rate this tab
 
# A B C D E F G H I J K L M N O P Q R S T U V W X Y Z