Beatsteaks - Shut Up Stand Up tab

Beatsteaks - Shut up, stand up (tuning: halfstep down)

Intro: 
(main riff:) 
        G          C       G         C       E         C       E 

-------|-----------------|-----------------|-----------------|-----------------| -------|-----------------|-----------------|-----------------|-----------------| -------|-----------5-5---|-----------5-5---|-----------5-5---|-----------------| -------|-5---5---x-5-5-0-|-5---5---x-5-5-0-|-2---2---x-5-5-0-|-2---2---x-------| -------|-5---5---x-3-3-0-|-5---5---x-3-3-0-|-2---2---x-3-3-0-|-2---2---x-------| -0-0-2-|-3---3-----------|-3---3-----------|-0---0-----------|-0---0-----0-0-2-|
Verse 1: play main riff 2x i quit this conversation you're right and i am done i think you make yourself a victim there's nothing good enough Interlude: G C G C
|-----------------|-----------------| |-----------------|-----------------| |-----------------|-----------------| |---------x-5-5-0-|---------x-5-5-0-| |-5---5---x-3-3-0-|-5---5---x-3-3-0-| |-3---3-----------|-3---3-----------|
Verse 2: play main riff 2x there's only one colour deep grey and a bitter taste you don't know you don't know you don't know what's there if you don't try Chorus: C D G G/F# C D G G/F# G
|-----------------|-----------------|-----------------|-----------------| |-----------------|-----------------|-----------------|-----------------| |-----------------|-----------------|-----------------|-----------------| |-5-5-5-5-7-7-7-7-|-----------------|-5-5-5-5-7-7-7-7-|-----------------| |-3-3-3-3-5-5-5-5-|-5-5-5-5-5-5-5-5-|-3-3-3-3-5-5-5-5-|-5-5-5-5---5-5---| |-----------------|-3-3-3-3-2-2-2-2-|-----------------|-3-3-3-2---2-3---|
C D G G/F# C D
|-----------------|-----------------|-----------------| |-----------------|-----------------|-----------------| |-----------------|-----------------|-----------------| |-5-5-5-5-7-7-7-7-|-----------------|-5-5-5-5-7-7-7-7-| |-3-3-3-3-5-5-5-5-|-5-5-5-5-5-5-5-5-|-3-3-3-3-5-5-5-5-| |-----------------|-3-3-3-3-2-2-2-2-|-----------------|
shut up stand up you drive me up the wall shut up stand up shut up stand up i heard it all before shut up stand up Solo 1: (2nd guitar plays main riff 1x)
|/15-15-15-15-/15-15-15-15-|/15-15-17b-17b-17-15-15-15-| |/15-15-15-15-/15-15-15-15-|/15-15-17b-17b-17-15-15----| |--------------------------|---------------------------| |--------------------------|---------------------------| |--------------------------|---------------------------| |--------------------------|---------------------------|
|----------------------------|----------------------------------| |-15-----15-----15-----15----|-15-------------------------------| |-17b19--17b19--17b19--17b19-|-17b19r17-15-----15---------------| |----------------------------|-------------17-------------------| |----------------------------|----------------------------------| |----------------------------|----------------------------------|
Verse 3: play main riff 1x, then: G C G C E
|-----------------|-----------------|-----------------|-----------------| |-----------------|-----------------|-----------------|-----------------| |-----------------|-----------------|-----------------|-----------------| |---------x-5-5-0-|---------x-5-5-0-|-----------------|-----------------| |-5---5---x-3-3-0-|-5---5---x-3-3-0-|-2---2-----------|-----------------| |-3---3-----------|-3---3-----------|-0---0-----------|-----------0-0-2-|
i quit this conversation you don't let your feelings show i don't know i don't know i don't know what you got inside Chorus: C D G G/F# C D G G/F# G
|-----------------|-----------------|-----------------|-----------------| |-----------------|-----------------|-----------------|-----------------| |-----------------|-----------------|-----------------|-----------------| |-5-5-5-5-7-7-7-7-|-----------------|-5-5-5-5-7-7-7-7-|-----------------| |-3-3-3-3-5-5-5-5-|-5-5-5-5-5-5-5-5-|-3-3-3-3-5-5-5-5-|-5-5-5-5---5-5---| |-----------------|-3-3-3-3-2-2-2-2-|-----------------|-3-3-3-2---2-3---|
C D G G/F# C D
|-----------------|-----------------|-----------------| |-----------------|-----------------|-----------------| |-----------------|-----------------|-----------------| |-5-5-5-5-7-7-7-7-|-----------------|-5-5-5-5-7-7-7-7-| |-3-3-3-3-5-5-5-5-|-5-5-5-5-5-5-5-5-|-3-3-3-3-5-5-5-5-| |-----------------|-3-3-3-3-2-2-2-2-|-----------------|
shut up stand up you drive me up the wall shut up stand up shut up stand up i heard it all before shut up stand up Bridge: C C/B G/F# G (3x)
|-----------------|-----------------| |-----------------|-----------------| |-------0-----0---|-----------------| |-5-5-5-5-5-5-5-0-|-----0-----------| |-3-3-3---2-2---0-|-5-5-5-5-5-5-----| |-----------------|-2-2---2-3-3-3-0-|
C C/B D
|-----------------|-----------------| |-----------------|-----------------| |-------0-----0---|-----------------| |-5-5-5-5-5-5-5-0-|-7-7-7-7-7-7-7-7-| |-3-3-3---2-2---0-|-5-5-5-5-5-5-5-5-| |-----------------|-----------------|
D (3x) |-----------------| |-----------------| |-----------------| |-7-7-7-7-7-7-7-7-| |-5-5-5-5-5-5-5-5-| |-----------------|
by the way i wanna have a good time with you it's friday night and i wanna go out i need some air and a place to go So won't you please shut the fuck up Solo 2: (2nd guitar plays main riff 2x)
-----|--------------------|--------------------| -----|--------------------|--------------------| -----|----------7-----7---|----------7-----7---| -9---|-9b10r9-9-----------|-9b10r9-9-----------| -----|--------------------|--------------------| -----|--------------------|--------------------|
1 + 2 + 3 + 4 + 1 + 2 + 3 + 4 + |---------------------|---------------------| |---------------------|---------------------| |---------------------|---------------------| |-9b10r9-9------------|-9b10r9-9------------| |----------10----10---|----------10---------| |---------------------|---------------------|
Chorus: (2x) Outro Chorus:
C D G G/F# (2x) 1 + 2 + 3 + 4 + 1 + 2 + 3 + 4 + |-----------------|-----------------| |-----------------|-----------------| |-----------------|-----------------| |-5-5-5-5-7-7-7-7-|-----------------| |-3-3-3-3-5-5-5-5-|-5-5-5-5-5-5-5-5-| |-----------------|-3-3-3-3-2-2-2-2-
shut up stand up shut up stand up shut up stand up shut up stand up
Tap to rate this tab
 
# A B C D E F G H I J K L M N O P Q R S T U V W X Y Z