Bebo Norman - Hammer Holds tab

***I have one correction to make, it should actually be capoed at
the third fret.  Otherwise this is right.  And this is a very good
song.


This is a great tune, this is only my second tabbed song,
hope you like.

Capo 4.
INTRO:


|------0--------|------0--------|---------------|---------------||----3-------3--|----3-------3--|------3--------|----2---3---2--||--2-------2---0|--0-------0---0|----0---------0|----0---0---0--||0--------------|---------------|--0---------0--|--2---2---2---2||--------4------|2-------0------|--------0h2----|0--------------||---------------|---------------|3--------------|---------------|
|------0--------|------0--------|---------------|-------|------------0--||----3-------3--|----3-------3--|------3--------|------3|----2---3------||--2-------2---0|--0-------0---0|----0-------2p0|----0--|----0---0---0--||0--------------|---------------|--0-------0----|--0----|--2---2---2---2||--------4------|2-------0------|---------------|-------|0--------------||---------------|---------------|3-------2------|3------|---------------|VERSE.
|------0--------|------0--------|---------------|---------------||----3-------3--|----3-------3--|------3--------|----2---3---2--||:-2-------2---0|--0-------0---0|----0---------0|----0---0---0--||0--------------|---------------|--0---------0--|--2---2---2---2||--------4------|2-------0------|--------0h2----|0--------------||---------------|---------------|3--------------|---------------|
|------0--------|------0--------|---------------|-------0h2----2||----3-------3--|----3-------3--|------3-------3|----3-----3----||--2-------2---0|--0-------0---0|----0-------0--|--2---2-----2--||0--------------|---------------|--0-------2----|0--------------||--------4------|2-------0------|--------0------|---------------||---------------|---------------|3--------------|---------------|
|------0--------|------0--------|---------------|---------------||----3-------3--|----3-------3--|------3--------|----2---3---2--||--2-------2---0|--0-------0---0|----0---------0|----0---0---0--||0--------------|---------------|--0---------0--|--2---2---2---2||--------4------|2-------0------|--------0h2----|0--------------||---------------|---------------|3--------------|---------------|
|------0--------|------0--------|---------------|-------0h2----2||----3-------3--|----3-------3--|----3-------3--|----3-----3----||--2-------2---0|--0-------0---0|----0-------0--|--2---2-----2--||0--------------|---------------|--0---0---2---2|0--------------||--------4------|2-------0------|--------0------|---------------||---------------|---------------|3--------------|---------------|CHORUS.
|------0--------|------0--------|---------------|-------0h2----2||----3-------3--|----3-------3--|------3-------3|----3-----3----||--2-------2---0|--0-------0---0|----0-------0--|--2---2-----2--||0--------------|---------------|--0-------2----|0--------------||--------4------|2-------0------|--------0------|---------------||---------------|---------------|3--------------|---------------|
|------0--------|------0--------|---------------|---------------||----3-------3--|----3-------3--|------3--------|------3-----2--||--2-------2---0|--0-------0---0|----0-------2p0|----0-------0--||0--------------|---------------|--0-------0----|--0-------2---2||--------4------|2-------0------|---------------|--------0------||---------------|---------------|3-------2------|3--------------|
|------0--------|------0--------|---------------|-------0h2----2||----3-------3--|----3-------3--|------3-----3--|----3-----3----||--2-------2---0|--0-------0---0|----0-------0--|--2---2-----2--||0--------------|---------------|--0-------2---2|0--------------||--------4------|2-------0------|--------0------|---------------||---------------|---------------|3--------------|---------------|
|------0--------|------0--------|---------------|-------0h2----2||----3-------3--|----3-------3--|------3-----3--|----3-----3----||--2-------2---0|--0-------0---0|----0-------0--|--2---2-----2--||0--------------|---------------|--0-------2---2|0--------------||--------4------|2-------0------|--------0------|---------------||---------------|---------------|3--------------|---------------|
|------0--------|------0--------|---------------|-------0h2----2||----3-------3--|----3-------3--|------3-----3--|----3-----3----||--2-------2---0|--0-------0---0|----0-------0--|--2---2-----2--||0--------------|---------------|--0-------2---2|0--------------||--------4------|2-------0------|--------0------|---------------||---------------|---------------|3--------------|---------------|
OUTRO.
|------0--------|------0--------|---------------||----3-------3--|----3-------3--|------3-------3||--2-------2---0|--0-------0---0|----0-------0--||0--------------|---------------|--0-------2----||--------4------|2-------0------|--------0------||---------------|---------------|3--------------|
|------0--------|------0--------|---------------|----0-0-0h2----||----3-------3--|----3-------3--|---------------|--3---3-3------||--2-------2---0|--0-------0---0|----------0----|2-----2-2------||0--------------|---------------|--0---------0-0|--------0------||--------4------|2-------0------|----0h2-0------|---------------||---------------|---------------|3--------------|---------------|
Tap to rate this tab
 
# A B C D E F G H I J K L M N O P Q R S T U V W X Y Z